ISO-10303-21;
HEADER;
/* Generated by software containing ST-Developer
 * from STEP Tools, Inc. (www.steptools.com) 
 */
/* OPTION: using custom schema-name function */

FILE_DESCRIPTION(
/* description */ (''),
/* implementation_level */ '2;1');

FILE_NAME(
/* name */ '2046005',
/* time_stamp */ '2014-09-22T15:29:44+02:00',
/* author */ (''),
/* organization */ (''),
/* preprocessor_version */ 'ST-DEVELOPER v15',
/* originating_system */ '',
/* authorisation */ '');

FILE_SCHEMA (('AUTOMOTIVE_DESIGN'));
ENDSEC;

DATA;
#10=SHAPE_REPRESENTATION_RELATIONSHIP('','',#117,#13);
#11=PRESENTATION_LAYER_ASSIGNMENT('Default','',(#12));
#12=MANIFOLD_SOLID_BREP('brep_1',#14);
#13=ADVANCED_BREP_SHAPE_REPRESENTATION('brep_rep_0',(#12,#121),#116);
#14=CLOSED_SHELL('',(#17,#18,#19,#20,#21,#22));
#15=FACE_BOUND('',#32,.T.);
#16=FACE_BOUND('',#34,.T.);
#17=ADVANCED_FACE('',(#23),#95,.T.);
#18=ADVANCED_FACE('',(#24),#96,.T.);
#19=ADVANCED_FACE('',(#25,#15),#93,.T.);
#20=ADVANCED_FACE('',(#26,#16),#94,.T.);
#21=ADVANCED_FACE('',(#27),#97,.T.);
#22=ADVANCED_FACE('',(#28),#98,.T.);
#23=FACE_OUTER_BOUND('',#29,.T.);
#24=FACE_OUTER_BOUND('',#30,.T.);
#25=FACE_OUTER_BOUND('',#31,.T.);
#26=FACE_OUTER_BOUND('',#33,.T.);
#27=FACE_OUTER_BOUND('',#35,.T.);
#28=FACE_OUTER_BOUND('',#36,.T.);
#29=EDGE_LOOP('',(#37,#38,#39,#40));
#30=EDGE_LOOP('',(#41,#42,#43,#44));
#31=EDGE_LOOP('',(#45,#46));
#32=EDGE_LOOP('',(#47,#48));
#33=EDGE_LOOP('',(#49,#50));
#34=EDGE_LOOP('',(#51,#52));
#35=EDGE_LOOP('',(#53,#54,#55,#56));
#36=EDGE_LOOP('',(#57,#58,#59,#60));
#37=ORIENTED_EDGE('',*,*,#67,.T.);
#38=ORIENTED_EDGE('',*,*,#63,.F.);
#39=ORIENTED_EDGE('',*,*,#62,.F.);
#40=ORIENTED_EDGE('',*,*,#61,.T.);
#41=ORIENTED_EDGE('',*,*,#70,.T.);
#42=ORIENTED_EDGE('',*,*,#66,.F.);
#43=ORIENTED_EDGE('',*,*,#65,.F.);
#44=ORIENTED_EDGE('',*,*,#64,.T.);
#45=ORIENTED_EDGE('',*,*,#68,.F.);
#46=ORIENTED_EDGE('',*,*,#61,.F.);
#47=ORIENTED_EDGE('',*,*,#71,.F.);
#48=ORIENTED_EDGE('',*,*,#64,.F.);
#49=ORIENTED_EDGE('',*,*,#63,.T.);
#50=ORIENTED_EDGE('',*,*,#69,.T.);
#51=ORIENTED_EDGE('',*,*,#66,.T.);
#52=ORIENTED_EDGE('',*,*,#72,.T.);
#53=ORIENTED_EDGE('',*,*,#68,.T.);
#54=ORIENTED_EDGE('',*,*,#62,.T.);
#55=ORIENTED_EDGE('',*,*,#69,.F.);
#56=ORIENTED_EDGE('',*,*,#67,.F.);
#57=ORIENTED_EDGE('',*,*,#71,.T.);
#58=ORIENTED_EDGE('',*,*,#65,.T.);
#59=ORIENTED_EDGE('',*,*,#72,.F.);
#60=ORIENTED_EDGE('',*,*,#70,.F.);
#61=EDGE_CURVE('',#85,#89,#73,.T.);
#62=EDGE_CURVE('',#85,#86,#74,.T.);
#63=EDGE_CURVE('',#86,#90,#75,.T.);
#64=EDGE_CURVE('',#87,#91,#76,.T.);
#65=EDGE_CURVE('',#87,#88,#77,.T.);
#66=EDGE_CURVE('',#88,#92,#78,.T.);
#67=EDGE_CURVE('',#89,#90,#79,.T.);
#68=EDGE_CURVE('',#89,#85,#80,.T.);
#69=EDGE_CURVE('',#90,#86,#81,.T.);
#70=EDGE_CURVE('',#91,#92,#82,.T.);
#71=EDGE_CURVE('',#91,#87,#83,.T.);
#72=EDGE_CURVE('',#92,#88,#84,.T.);
#73=(
BOUNDED_CURVE()
B_SPLINE_CURVE(2,(#179,#180,#181,#182,#183),.UNSPECIFIED.,.F.,.F.)
B_SPLINE_CURVE_WITH_KNOTS((3,2,3),(0.,25.1327412287183,50.2654824574367),
 .UNSPECIFIED.)
CURVE()
GEOMETRIC_REPRESENTATION_ITEM()
RATIONAL_B_SPLINE_CURVE((1.,0.707106781186548,1.,0.707106781186548,1.))
REPRESENTATION_ITEM('')
);
#74=(
BOUNDED_CURVE()
B_SPLINE_CURVE(1,(#184,#185),.UNSPECIFIED.,.F.,.F.)
B_SPLINE_CURVE_WITH_KNOTS((2,2),(0.,3000.),.UNSPECIFIED.)
CURVE()
GEOMETRIC_REPRESENTATION_ITEM()
RATIONAL_B_SPLINE_CURVE((1.,1.))
REPRESENTATION_ITEM('')
);
#75=(
BOUNDED_CURVE()
B_SPLINE_CURVE(2,(#186,#187,#188,#189,#190),.UNSPECIFIED.,.F.,.F.)
B_SPLINE_CURVE_WITH_KNOTS((3,2,3),(0.,25.1327412287183,50.2654824574367),
 .UNSPECIFIED.)
CURVE()
GEOMETRIC_REPRESENTATION_ITEM()
RATIONAL_B_SPLINE_CURVE((1.,0.707106781186548,1.,0.707106781186548,1.))
REPRESENTATION_ITEM('')
);
#76=(
BOUNDED_CURVE()
B_SPLINE_CURVE(2,(#191,#192,#193,#194,#195),.UNSPECIFIED.,.F.,.F.)
B_SPLINE_CURVE_WITH_KNOTS((3,2,3),(100.530964914873,125.663706143592,150.79644737231),
 .UNSPECIFIED.)
CURVE()
GEOMETRIC_REPRESENTATION_ITEM()
RATIONAL_B_SPLINE_CURVE((1.,0.707106781186548,1.,0.707106781186548,1.))
REPRESENTATION_ITEM('')
);
#77=(
BOUNDED_CURVE()
B_SPLINE_CURVE(1,(#196,#197),.UNSPECIFIED.,.F.,.F.)
B_SPLINE_CURVE_WITH_KNOTS((2,2),(0.,3000.),.UNSPECIFIED.)
CURVE()
GEOMETRIC_REPRESENTATION_ITEM()
RATIONAL_B_SPLINE_CURVE((1.,1.))
REPRESENTATION_ITEM('')
);
#78=(
BOUNDED_CURVE()
B_SPLINE_CURVE(2,(#198,#199,#200,#201,#202),.UNSPECIFIED.,.F.,.F.)
B_SPLINE_CURVE_WITH_KNOTS((3,2,3),(100.530964914873,125.663706143592,150.79644737231),
 .UNSPECIFIED.)
CURVE()
GEOMETRIC_REPRESENTATION_ITEM()
RATIONAL_B_SPLINE_CURVE((1.,0.707106781186548,1.,0.707106781186548,1.))
REPRESENTATION_ITEM('')
);
#79=(
BOUNDED_CURVE()
B_SPLINE_CURVE(1,(#203,#204),.UNSPECIFIED.,.F.,.F.)
B_SPLINE_CURVE_WITH_KNOTS((2,2),(0.,3000.),.UNSPECIFIED.)
CURVE()
GEOMETRIC_REPRESENTATION_ITEM()
RATIONAL_B_SPLINE_CURVE((1.,1.))
REPRESENTATION_ITEM('')
);
#80=(
BOUNDED_CURVE()
B_SPLINE_CURVE(2,(#205,#206,#207,#208,#209),.UNSPECIFIED.,.F.,.F.)
B_SPLINE_CURVE_WITH_KNOTS((3,2,3),(50.2654824574367,75.398223686155,100.530964914873),
 .UNSPECIFIED.)
CURVE()
GEOMETRIC_REPRESENTATION_ITEM()
RATIONAL_B_SPLINE_CURVE((1.,0.707106781186548,1.,0.707106781186548,1.))
REPRESENTATION_ITEM('')
);
#81=(
BOUNDED_CURVE()
B_SPLINE_CURVE(2,(#210,#211,#212,#213,#214),.UNSPECIFIED.,.F.,.F.)
B_SPLINE_CURVE_WITH_KNOTS((3,2,3),(50.2654824574367,75.398223686155,100.530964914873),
 .UNSPECIFIED.)
CURVE()
GEOMETRIC_REPRESENTATION_ITEM()
RATIONAL_B_SPLINE_CURVE((1.,0.707106781186548,1.,0.707106781186548,1.))
REPRESENTATION_ITEM('')
);
#82=(
BOUNDED_CURVE()
B_SPLINE_CURVE(1,(#215,#216),.UNSPECIFIED.,.F.,.F.)
B_SPLINE_CURVE_WITH_KNOTS((2,2),(0.,3000.),.UNSPECIFIED.)
CURVE()
GEOMETRIC_REPRESENTATION_ITEM()
RATIONAL_B_SPLINE_CURVE((1.,1.))
REPRESENTATION_ITEM('')
);
#83=(
BOUNDED_CURVE()
B_SPLINE_CURVE(2,(#217,#218,#219,#220,#221),.UNSPECIFIED.,.F.,.F.)
B_SPLINE_CURVE_WITH_KNOTS((3,2,3),(150.79644737231,175.929188601028,201.061929829747),
 .UNSPECIFIED.)
CURVE()
GEOMETRIC_REPRESENTATION_ITEM()
RATIONAL_B_SPLINE_CURVE((1.,0.707106781186548,1.,0.707106781186548,1.))
REPRESENTATION_ITEM('')
);
#84=(
BOUNDED_CURVE()
B_SPLINE_CURVE(2,(#222,#223,#224,#225,#226),.UNSPECIFIED.,.F.,.F.)
B_SPLINE_CURVE_WITH_KNOTS((3,2,3),(150.79644737231,175.929188601028,201.061929829747),
 .UNSPECIFIED.)
CURVE()
GEOMETRIC_REPRESENTATION_ITEM()
RATIONAL_B_SPLINE_CURVE((1.,0.707106781186548,1.,0.707106781186548,1.))
REPRESENTATION_ITEM('')
);
#85=VERTEX_POINT('',#171);
#86=VERTEX_POINT('',#172);
#87=VERTEX_POINT('',#173);
#88=VERTEX_POINT('',#174);
#89=VERTEX_POINT('',#175);
#90=VERTEX_POINT('',#176);
#91=VERTEX_POINT('',#177);
#92=VERTEX_POINT('',#178);
#93=PLANE('',#119);
#94=PLANE('',#120);
#95=(
BOUNDED_SURFACE()
B_SPLINE_SURFACE(2,1,((#129,#130),(#131,#132),(#133,#134),(#135,#136),(#137,
#138)),.UNSPECIFIED.,.F.,.F.,.F.)
B_SPLINE_SURFACE_WITH_KNOTS((3,2,3),(2,2),(0.,25.1327412287183,50.2654824574367),
(0.,3000.),.UNSPECIFIED.)
GEOMETRIC_REPRESENTATION_ITEM()
RATIONAL_B_SPLINE_SURFACE(((1.,1.),(0.707106781186548,0.707106781186548),
(1.,1.),(0.707106781186548,0.707106781186548),(1.,1.)))
REPRESENTATION_ITEM('')
SURFACE()
);
#96=(
BOUNDED_SURFACE()
B_SPLINE_SURFACE(2,1,((#139,#140),(#141,#142),(#143,#144),(#145,#146),(#147,
#148)),.UNSPECIFIED.,.F.,.F.,.F.)
B_SPLINE_SURFACE_WITH_KNOTS((3,2,3),(2,2),(100.530964914873,125.663706143592,
150.79644737231),(0.,3000.),.UNSPECIFIED.)
GEOMETRIC_REPRESENTATION_ITEM()
RATIONAL_B_SPLINE_SURFACE(((1.,1.),(0.707106781186548,0.707106781186548),
(1.,1.),(0.707106781186548,0.707106781186548),(1.,1.)))
REPRESENTATION_ITEM('')
SURFACE()
);
#97=(
BOUNDED_SURFACE()
B_SPLINE_SURFACE(2,1,((#151,#152),(#153,#154),(#155,#156),(#157,#158),(#159,
#160)),.UNSPECIFIED.,.F.,.F.,.F.)
B_SPLINE_SURFACE_WITH_KNOTS((3,2,3),(2,2),(50.2654824574367,75.398223686155,
100.530964914873),(0.,3000.),.UNSPECIFIED.)
GEOMETRIC_REPRESENTATION_ITEM()
RATIONAL_B_SPLINE_SURFACE(((1.,1.),(0.707106781186548,0.707106781186548),
(1.,1.),(0.707106781186548,0.707106781186548),(1.,1.)))
REPRESENTATION_ITEM('')
SURFACE()
);
#98=(
BOUNDED_SURFACE()
B_SPLINE_SURFACE(2,1,((#161,#162),(#163,#164),(#165,#166),(#167,#168),(#169,
#170)),.UNSPECIFIED.,.F.,.F.,.F.)
B_SPLINE_SURFACE_WITH_KNOTS((3,2,3),(2,2),(150.79644737231,175.929188601028,
201.061929829747),(0.,3000.),.UNSPECIFIED.)
GEOMETRIC_REPRESENTATION_ITEM()
RATIONAL_B_SPLINE_SURFACE(((1.,1.),(0.707106781186548,0.707106781186548),
(1.,1.),(0.707106781186548,0.707106781186548),(1.,1.)))
REPRESENTATION_ITEM('')
SURFACE()
);
#99=SHAPE_DEFINITION_REPRESENTATION(#100,#117);
#100=PRODUCT_DEFINITION_SHAPE('Document','',#102);
#101=PRODUCT_DEFINITION_CONTEXT('3D Mechanical Parts',#106,'design');
#102=PRODUCT_DEFINITION('A','First version',#103,#101);
#103=PRODUCT_DEFINITION_FORMATION_WITH_SPECIFIED_SOURCE('A',
'First version',#108,.MADE.);
#104=PRODUCT_RELATED_PRODUCT_CATEGORY('tool','tool',(#108));
#105=APPLICATION_PROTOCOL_DEFINITION('Draft International Standard',
'automotive_design',1999,#106);
#106=APPLICATION_CONTEXT(
'data for automotive mechanical design processes');
#107=PRODUCT_CONTEXT('3D Mechanical Parts',#106,'mechanical');
#108=PRODUCT('Document','Document','Rhino converted to STEP',(#107));
#109=(
LENGTH_UNIT()
NAMED_UNIT(*)
SI_UNIT(.MILLI.,.METRE.)
);
#110=(
NAMED_UNIT(*)
PLANE_ANGLE_UNIT()
SI_UNIT($,.RADIAN.)
);
#111=DIMENSIONAL_EXPONENTS(0.,0.,0.,0.,0.,0.,0.);
#112=PLANE_ANGLE_MEASURE_WITH_UNIT(PLANE_ANGLE_MEASURE(0.01745329252),#110);
#113=(
CONVERSION_BASED_UNIT('DEGREES',#112)
NAMED_UNIT(#111)
PLANE_ANGLE_UNIT()
);
#114=(
NAMED_UNIT(*)
SI_UNIT($,.STERADIAN.)
SOLID_ANGLE_UNIT()
);
#115=UNCERTAINTY_MEASURE_WITH_UNIT(LENGTH_MEASURE(0.01),#109,
'DISTANCE_ACCURACY_VALUE',
'Maximum model space distance between geometric entities at asserted c
onnectivities');
#116=(
GEOMETRIC_REPRESENTATION_CONTEXT(3)
GLOBAL_UNCERTAINTY_ASSIGNED_CONTEXT((#115))
GLOBAL_UNIT_ASSIGNED_CONTEXT((#114,#113,#109))
REPRESENTATION_CONTEXT('ID1','3D')
);
#117=SHAPE_REPRESENTATION('Document',(#118,#121),#116);
#118=AXIS2_PLACEMENT_3D('',#128,#122,#123);
#119=AXIS2_PLACEMENT_3D('',#149,#124,$);
#120=AXIS2_PLACEMENT_3D('',#150,#125,$);
#121=AXIS2_PLACEMENT_3D('',#227,#126,#127);
#122=DIRECTION('',(0.,0.,1.));
#123=DIRECTION('',(1.,0.,0.));
#124=DIRECTION('',(0.,0.,-1.));
#125=DIRECTION('',(0.,0.,1.));
#126=DIRECTION('',(0.,0.,1.));
#127=DIRECTION('',(1.,0.,0.));
#128=CARTESIAN_POINT('',(0.,0.,0.));
#129=CARTESIAN_POINT('',(16.,0.,0.));
#130=CARTESIAN_POINT('',(16.,0.,3000.));
#131=CARTESIAN_POINT('',(16.,16.,0.));
#132=CARTESIAN_POINT('',(16.,16.,3000.));
#133=CARTESIAN_POINT('',(1.77635683940025E-15,16.,0.));
#134=CARTESIAN_POINT('',(1.77635683940025E-15,16.,3000.));
#135=CARTESIAN_POINT('',(-16.,16.,0.));
#136=CARTESIAN_POINT('',(-16.,16.,3000.));
#137=CARTESIAN_POINT('',(-16.,1.95943487863577E-15,0.));
#138=CARTESIAN_POINT('',(-16.,1.95943487863577E-15,3000.));
#139=CARTESIAN_POINT('',(14.7,-3.39634956986433E-15,0.));
#140=CARTESIAN_POINT('',(14.7,-3.39634956986433E-15,3000.));
#141=CARTESIAN_POINT('',(14.7,-14.7,0.));
#142=CARTESIAN_POINT('',(14.7,-14.7,3000.));
#143=CARTESIAN_POINT('',(-3.5527136788005E-15,-14.7,0.));
#144=CARTESIAN_POINT('',(-3.5527136788005E-15,-14.7,3000.));
#145=CARTESIAN_POINT('',(-14.7,-14.7,0.));
#146=CARTESIAN_POINT('',(-14.7,-14.7,3000.));
#147=CARTESIAN_POINT('',(-14.7,1.59611877511772E-15,0.));
#148=CARTESIAN_POINT('',(-14.7,1.59611877511772E-15,3000.));
#149=CARTESIAN_POINT('',(-20.,-20.,0.));
#150=CARTESIAN_POINT('',(-20.,-20.,3000.));
#151=CARTESIAN_POINT('',(-16.,1.95943487863577E-15,0.));
#152=CARTESIAN_POINT('',(-16.,1.95943487863577E-15,3000.));
#153=CARTESIAN_POINT('',(-16.,-16.,0.));
#154=CARTESIAN_POINT('',(-16.,-16.,3000.));
#155=CARTESIAN_POINT('',(-3.5527136788005E-15,-16.,0.));
#156=CARTESIAN_POINT('',(-3.5527136788005E-15,-16.,3000.));
#157=CARTESIAN_POINT('',(16.,-16.,0.));
#158=CARTESIAN_POINT('',(16.,-16.,3000.));
#159=CARTESIAN_POINT('',(16.,0.,0.));
#160=CARTESIAN_POINT('',(16.,0.,3000.));
#161=CARTESIAN_POINT('',(-14.7,1.59611877511772E-15,0.));
#162=CARTESIAN_POINT('',(-14.7,1.59611877511772E-15,3000.));
#163=CARTESIAN_POINT('',(-14.7,14.7,0.));
#164=CARTESIAN_POINT('',(-14.7,14.7,3000.));
#165=CARTESIAN_POINT('',(0.,14.7,0.));
#166=CARTESIAN_POINT('',(0.,14.7,3000.));
#167=CARTESIAN_POINT('',(14.7,14.7,0.));
#168=CARTESIAN_POINT('',(14.7,14.7,3000.));
#169=CARTESIAN_POINT('',(14.7,-3.39634956986433E-15,0.));
#170=CARTESIAN_POINT('',(14.7,-3.39634956986433E-15,3000.));
#171=CARTESIAN_POINT('',(16.,0.,0.));
#172=CARTESIAN_POINT('',(16.,0.,3000.));
#173=CARTESIAN_POINT('',(14.7,-3.39634956986433E-15,0.));
#174=CARTESIAN_POINT('',(14.7,-3.39634956986433E-15,3000.));
#175=CARTESIAN_POINT('',(-16.,1.95943487863577E-15,0.));
#176=CARTESIAN_POINT('',(-16.,1.95943487863577E-15,3000.));
#177=CARTESIAN_POINT('',(-14.7,1.59611877511772E-15,0.));
#178=CARTESIAN_POINT('',(-14.7,1.59611877511772E-15,3000.));
#179=CARTESIAN_POINT('',(16.,0.,0.));
#180=CARTESIAN_POINT('',(16.,16.,0.));
#181=CARTESIAN_POINT('',(1.77635683940025E-15,16.,0.));
#182=CARTESIAN_POINT('',(-16.,16.,0.));
#183=CARTESIAN_POINT('',(-16.,1.95943487863577E-15,0.));
#184=CARTESIAN_POINT('',(16.,0.,0.));
#185=CARTESIAN_POINT('',(16.,0.,3000.));
#186=CARTESIAN_POINT('',(16.,0.,3000.));
#187=CARTESIAN_POINT('',(16.,16.,3000.));
#188=CARTESIAN_POINT('',(1.77635683940025E-15,16.,3000.));
#189=CARTESIAN_POINT('',(-16.,16.,3000.));
#190=CARTESIAN_POINT('',(-16.,1.95943487863577E-15,3000.));
#191=CARTESIAN_POINT('',(14.7,-3.39634956986433E-15,0.));
#192=CARTESIAN_POINT('',(14.7,-14.7,0.));
#193=CARTESIAN_POINT('',(-3.5527136788005E-15,-14.7,0.));
#194=CARTESIAN_POINT('',(-14.7,-14.7,0.));
#195=CARTESIAN_POINT('',(-14.7,1.59611877511772E-15,0.));
#196=CARTESIAN_POINT('',(14.7,-3.39634956986433E-15,0.));
#197=CARTESIAN_POINT('',(14.7,-3.39634956986433E-15,3000.));
#198=CARTESIAN_POINT('',(14.7,-3.39634956986433E-15,3000.));
#199=CARTESIAN_POINT('',(14.7,-14.7,3000.));
#200=CARTESIAN_POINT('',(-3.5527136788005E-15,-14.7,3000.));
#201=CARTESIAN_POINT('',(-14.7,-14.7,3000.));
#202=CARTESIAN_POINT('',(-14.7,1.59611877511772E-15,3000.));
#203=CARTESIAN_POINT('',(-16.,1.95943487863577E-15,0.));
#204=CARTESIAN_POINT('',(-16.,1.95943487863577E-15,3000.));
#205=CARTESIAN_POINT('',(-16.,1.95943487863577E-15,0.));
#206=CARTESIAN_POINT('',(-16.,-16.,0.));
#207=CARTESIAN_POINT('',(-3.5527136788005E-15,-16.,0.));
#208=CARTESIAN_POINT('',(16.,-16.,0.));
#209=CARTESIAN_POINT('',(16.,0.,0.));
#210=CARTESIAN_POINT('',(-16.,1.95943487863577E-15,3000.));
#211=CARTESIAN_POINT('',(-16.,-16.,3000.));
#212=CARTESIAN_POINT('',(-3.5527136788005E-15,-16.,3000.));
#213=CARTESIAN_POINT('',(16.,-16.,3000.));
#214=CARTESIAN_POINT('',(16.,0.,3000.));
#215=CARTESIAN_POINT('',(-14.7,1.59611877511772E-15,0.));
#216=CARTESIAN_POINT('',(-14.7,1.59611877511772E-15,3000.));
#217=CARTESIAN_POINT('',(-14.7,1.59611877511772E-15,0.));
#218=CARTESIAN_POINT('',(-14.7,14.7,0.));
#219=CARTESIAN_POINT('',(0.,14.7,0.));
#220=CARTESIAN_POINT('',(14.7,14.7,0.));
#221=CARTESIAN_POINT('',(14.7,-3.39634956986433E-15,0.));
#222=CARTESIAN_POINT('',(-14.7,1.59611877511772E-15,3000.));
#223=CARTESIAN_POINT('',(-14.7,14.7,3000.));
#224=CARTESIAN_POINT('',(0.,14.7,3000.));
#225=CARTESIAN_POINT('',(14.7,14.7,3000.));
#226=CARTESIAN_POINT('',(14.7,-3.39634956986433E-15,3000.));
#227=CARTESIAN_POINT('',(0.,0.,0.));
ENDSEC;
END-ISO-10303-21;
