ISO-10303-21;
HEADER;
FILE_DESCRIPTION (( 'STEP AP214' ),
    '1' );
FILE_NAME ('2046525.STEP',
    '2025-01-24T14:55:12',
    ( '' ),
    ( '' ),
    'SwSTEP 2.0',
    'SolidWorks 2024',
    '' );
FILE_SCHEMA (( 'AUTOMOTIVE_DESIGN' ));
ENDSEC;

DATA;
#1 = ORIENTED_EDGE ( 'NONE', *, *, #110, .T. ) ;
#2 = AXIS2_PLACEMENT_3D ( 'NONE', #92, #166, #162 ) ;
#3 = ORIENTED_EDGE ( 'NONE', *, *, #94, .F. ) ;
#4 = EDGE_LOOP ( 'NONE', ( #156, #1 ) ) ;
#5 =( NAMED_UNIT ( * ) SI_UNIT ( $, .STERADIAN. ) SOLID_ANGLE_UNIT ( ) );
#6 = EDGE_CURVE ( 'NONE', #157, #66, #109, .T. ) ;
#7 = DIRECTION ( 'NONE',  ( -1.000000000000000000, 0.000000000000000000, -0.000000000000000000 ) ) ;
#8 = FACE_OUTER_BOUND ( 'NONE', #4, .T. ) ;
#9 = PLANE ( 'NONE',  #176 ) ;
#10 = CYLINDRICAL_SURFACE ( 'NONE', #192, 15.25000000000000000 ) ;
#11 = CARTESIAN_POINT ( 'NONE',  ( 22.50000000000000000, 0.000000000000000000, 0.000000000000000000 ) ) ;
#12 = VECTOR ( 'NONE', #126, 1000.000000000000000 ) ;
#13 = DIRECTION ( 'NONE',  ( -1.000000000000000000, -0.000000000000000000, -0.000000000000000000 ) ) ;
#14 = PRODUCT_CONTEXT ( 'NONE', #90, 'mechanical' ) ;
#15 = MECHANICAL_DESIGN_GEOMETRIC_PRESENTATION_REPRESENTATION (  '', ( #196 ), #48 ) ;
#16 = CARTESIAN_POINT ( 'NONE',  ( -22.50000000000000000, 0.000000000000000000, 0.000000000000000000 ) ) ;
#17 = CIRCLE ( 'NONE', #160, 17.64999999999999858 ) ;
#18 = ORIENTED_EDGE ( 'NONE', *, *, #199, .F. ) ;
#19 = ORIENTED_EDGE ( 'NONE', *, *, #167, .T. ) ;
#20 =( LENGTH_UNIT ( ) NAMED_UNIT ( * ) SI_UNIT ( .MILLI., .METRE. ) );
#21 = PRODUCT ( '2046525', '2046525', '', ( #14 ) ) ;
#22 = CARTESIAN_POINT ( 'NONE',  ( 22.50000000000000000, 2.161501600495078284E-15, -17.64999999999999858 ) ) ;
#23 = DIRECTION ( 'NONE',  ( -1.000000000000000000, -0.000000000000000000, -0.000000000000000000 ) ) ;
#24 = DIRECTION ( 'NONE',  ( -1.000000000000000000, -0.000000000000000000, -0.000000000000000000 ) ) ;
#25 = DIRECTION ( 'NONE',  ( 0.000000000000000000, 0.000000000000000000, 1.000000000000000000 ) ) ;
#26 = DIRECTION ( 'NONE',  ( 0.000000000000000000, 0.000000000000000000, 1.000000000000000000 ) ) ;
#27 = DIRECTION ( 'NONE',  ( -1.000000000000000000, -0.000000000000000000, -0.000000000000000000 ) ) ;
#28 = VERTEX_POINT ( 'NONE', #129 ) ;
#29 = APPLICATION_PROTOCOL_DEFINITION ( 'draft international standard', 'automotive_design', 1998, #67 ) ;
#30 = PRODUCT_DEFINITION ( 'UNKNOWN', '', #141, #70 ) ;
#31 =( NAMED_UNIT ( * ) PLANE_ANGLE_UNIT ( ) SI_UNIT ( $, .RADIAN. ) );
#32 = PRESENTATION_LAYER_ASSIGNMENT (  '', '', ( #196 ) ) ;
#33 = MANIFOLD_SOLID_BREP ( 'Rotation1', #136 ) ;
#34 = VERTEX_POINT ( 'NONE', #103 ) ;
#35 = ORIENTED_EDGE ( 'NONE', *, *, #182, .T. ) ;
#36 = CARTESIAN_POINT ( 'NONE',  ( 22.50000000000000000, 17.64999999999999858, 0.000000000000000000 ) ) ;
#37 = VERTEX_POINT ( 'NONE', #22 ) ;
#38 = ORIENTED_EDGE ( 'NONE', *, *, #110, .F. ) ;
#39 = CARTESIAN_POINT ( 'NONE',  ( 22.50000000000000000, 0.000000000000000000, 0.000000000000000000 ) ) ;
#40 = ADVANCED_BREP_SHAPE_REPRESENTATION ( '2046525', ( #33, #97 ), #168 ) ;
#41 = CARTESIAN_POINT ( 'NONE',  ( -22.50000000000000000, 0.000000000000000000, 0.000000000000000000 ) ) ;
#42 = ADVANCED_FACE ( 'NONE', ( #88, #116 ), #144, .F. ) ;
#43 = LINE ( 'NONE', #55, #71 ) ;
#44 = AXIS2_PLACEMENT_3D ( 'NONE', #39, #23, #26 ) ;
#45 = CARTESIAN_POINT ( 'NONE',  ( 22.50000000000000000, 0.000000000000000000, 0.000000000000000000 ) ) ;
#46 = CARTESIAN_POINT ( 'NONE',  ( -22.50000000000000000, 1.867586368699713770E-15, -15.25000000000000000 ) ) ;
#47 = CIRCLE ( 'NONE', #76, 17.64999999999999858 ) ;
#48 =( GEOMETRIC_REPRESENTATION_CONTEXT ( 3 ) GLOBAL_UNCERTAINTY_ASSIGNED_CONTEXT ( ( #142 ) ) GLOBAL_UNIT_ASSIGNED_CONTEXT ( ( #20, #86, #5 ) ) REPRESENTATION_CONTEXT ( 'NONE', 'WORKASPACE' ) );
#49 = ORIENTED_EDGE ( 'NONE', *, *, #6, .F. ) ;
#50 = ORIENTED_EDGE ( 'NONE', *, *, #155, .F. ) ;
#51 = EDGE_CURVE ( 'NONE', #85, #34, #117, .T. ) ;
#52 = ORIENTED_EDGE ( 'NONE', *, *, #75, .T. ) ;
#53 = CARTESIAN_POINT ( 'NONE',  ( -22.50000000000000000, 0.000000000000000000, 15.25000000000000000 ) ) ;
#54 = AXIS2_PLACEMENT_3D ( 'NONE', #147, #27, #89 ) ;
#55 = CARTESIAN_POINT ( 'NONE',  ( -22.50000000000000000, 2.161501600495078284E-15, -17.64999999999999858 ) ) ;
#56 = PRODUCT_RELATED_PRODUCT_CATEGORY ( 'part', '', ( #21 ) ) ;
#57 = DIRECTION ( 'NONE',  ( -1.000000000000000000, -0.000000000000000000, -0.000000000000000000 ) ) ;
#58 = CARTESIAN_POINT ( 'NONE',  ( -22.50000000000000000, 0.000000000000000000, 15.25000000000000000 ) ) ;
#59 = CARTESIAN_POINT ( 'NONE',  ( 22.50000000000000000, 0.000000000000000000, 15.25000000000000000 ) ) ;
#60 = VECTOR ( 'NONE', #77, 1000.000000000000000 ) ;
#61 = EDGE_CURVE ( 'NONE', #28, #37, #17, .T. ) ;
#62 = ORIENTED_EDGE ( 'NONE', *, *, #143, .F. ) ;
#63 = ORIENTED_EDGE ( 'NONE', *, *, #61, .T. ) ;
#64 = ORIENTED_EDGE ( 'NONE', *, *, #167, .F. ) ;
#65 = AXIS2_PLACEMENT_3D ( 'NONE', #41, #95, #123 ) ;
#66 = VERTEX_POINT ( 'NONE', #148 ) ;
#67 = APPLICATION_CONTEXT ( 'automotive_design' ) ;
#68 = ORIENTED_EDGE ( 'NONE', *, *, #94, .T. ) ;
#69 = CYLINDRICAL_SURFACE ( 'NONE', #65, 15.25000000000000000 ) ;
#70 = PRODUCT_DEFINITION_CONTEXT ( 'detailed design', #67, 'design' ) ;
#71 = VECTOR ( 'NONE', #108, 1000.000000000000000 ) ;
#72 = DIRECTION ( 'NONE',  ( -1.000000000000000000, -0.000000000000000000, -0.000000000000000000 ) ) ;
#73 = DIRECTION ( 'NONE',  ( -1.000000000000000000, -0.000000000000000000, -0.000000000000000000 ) ) ;
#74 = FACE_OUTER_BOUND ( 'NONE', #83, .T. ) ;
#75 = EDGE_CURVE ( 'NONE', #131, #34, #96, .T. ) ;
#76 = AXIS2_PLACEMENT_3D ( 'NONE', #11, #73, #122 ) ;
#77 = DIRECTION ( 'NONE',  ( -1.000000000000000000, -0.000000000000000000, -0.000000000000000000 ) ) ;
#78 = ADVANCED_FACE ( 'NONE', ( #146 ), #112, .T. ) ;
#79 = CARTESIAN_POINT ( 'NONE',  ( 0.000000000000000000, 0.000000000000000000, 0.000000000000000000 ) ) ;
#80 = ADVANCED_FACE ( 'NONE', ( #134, #8 ), #9, .F. ) ;
#81 = CIRCLE ( 'NONE', #184, 15.25000000000000000 ) ;
#82 = FILL_AREA_STYLE ('',( #159 ) ) ;
#83 = EDGE_LOOP ( 'NONE', ( #172, #138, #158, #18 ) ) ;
#84 = PRODUCT_DEFINITION_SHAPE ( 'NONE', 'NONE',  #30 ) ;
#85 = VERTEX_POINT ( 'NONE', #195 ) ;
#86 =( NAMED_UNIT ( * ) PLANE_ANGLE_UNIT ( ) SI_UNIT ( $, .RADIAN. ) );
#87 = AXIS2_PLACEMENT_3D ( 'NONE', #36, #7, #171 ) ;
#88 = FACE_OUTER_BOUND ( 'NONE', #170, .T. ) ;
#89 = DIRECTION ( 'NONE',  ( 0.000000000000000000, 0.000000000000000000, 1.000000000000000000 ) ) ;
#90 = APPLICATION_CONTEXT ( 'automotive_design' ) ;
#91 = DIRECTION ( 'NONE',  ( 0.000000000000000000, 0.000000000000000000, 1.000000000000000000 ) ) ;
#92 = CARTESIAN_POINT ( 'NONE',  ( -22.50000000000000000, 0.000000000000000000, 0.000000000000000000 ) ) ;
#93 = DIRECTION ( 'NONE',  ( -1.000000000000000000, -0.000000000000000000, -0.000000000000000000 ) ) ;
#94 = EDGE_CURVE ( 'NONE', #100, #85, #128, .T. ) ;
#95 = DIRECTION ( 'NONE',  ( -1.000000000000000000, -0.000000000000000000, -0.000000000000000000 ) ) ;
#96 = CIRCLE ( 'NONE', #169, 15.25000000000000000 ) ;
#97 = AXIS2_PLACEMENT_3D ( 'NONE', #79, #137, #152 ) ;
#98 = AXIS2_PLACEMENT_3D ( 'NONE', #107, #72, #163 ) ;
#99 = EDGE_LOOP ( 'NONE', ( #63, #19, #49, #50 ) ) ;
#100 = VERTEX_POINT ( 'NONE', #59 ) ;
#101 = SURFACE_STYLE_FILL_AREA ( #82 ) ;
#102 = EDGE_LOOP ( 'NONE', ( #121, #3, #119, #52 ) ) ;
#103 = CARTESIAN_POINT ( 'NONE',  ( -22.50000000000000000, 1.867586368699713770E-15, -15.25000000000000000 ) ) ;
#104 = AXIS2_PLACEMENT_3D ( 'NONE', #132, #93, #124 ) ;
#105 = EDGE_CURVE ( 'NONE', #37, #28, #47, .T. ) ;
#106 = DIRECTION ( 'NONE',  ( -1.000000000000000000, -0.000000000000000000, -0.000000000000000000 ) ) ;
#107 = CARTESIAN_POINT ( 'NONE',  ( -22.50000000000000000, 0.000000000000000000, 0.000000000000000000 ) ) ;
#108 = DIRECTION ( 'NONE',  ( -1.000000000000000000, -0.000000000000000000, -0.000000000000000000 ) ) ;
#109 = CIRCLE ( 'NONE', #198, 17.64999999999999858 ) ;
#110 = EDGE_CURVE ( 'NONE', #66, #157, #153, .T. ) ;
#111 = DIRECTION ( 'NONE',  ( 0.000000000000000000, 0.000000000000000000, -1.000000000000000000 ) ) ;
#112 = CYLINDRICAL_SURFACE ( 'NONE', #2, 17.64999999999999858 ) ;
#113 = ORIENTED_EDGE ( 'NONE', *, *, #61, .F. ) ;
#114 =( NAMED_UNIT ( * ) SI_UNIT ( $, .STERADIAN. ) SOLID_ANGLE_UNIT ( ) );
#115 = EDGE_LOOP ( 'NONE', ( #161, #62 ) ) ;
#116 = FACE_BOUND ( 'NONE', #187, .T. ) ;
#117 = LINE ( 'NONE', #46, #125 ) ;
#118 = DIRECTION ( 'NONE',  ( 0.000000000000000000, 0.000000000000000000, 1.000000000000000000 ) ) ;
#119 = ORIENTED_EDGE ( 'NONE', *, *, #199, .T. ) ;
#120 = ADVANCED_FACE ( 'NONE', ( #74 ), #69, .F. ) ;
#121 = ORIENTED_EDGE ( 'NONE', *, *, #51, .F. ) ;
#122 = DIRECTION ( 'NONE',  ( 0.000000000000000000, 0.000000000000000000, 1.000000000000000000 ) ) ;
#123 = DIRECTION ( 'NONE',  ( 0.000000000000000000, 0.000000000000000000, 1.000000000000000000 ) ) ;
#124 = DIRECTION ( 'NONE',  ( 0.000000000000000000, 0.000000000000000000, 1.000000000000000000 ) ) ;
#125 = VECTOR ( 'NONE', #57, 1000.000000000000000 ) ;
#126 = DIRECTION ( 'NONE',  ( -1.000000000000000000, -0.000000000000000000, -0.000000000000000000 ) ) ;
#127 = SURFACE_STYLE_USAGE ( .BOTH. , #130 ) ;
#128 = CIRCLE ( 'NONE', #44, 15.25000000000000000 ) ;
#129 = CARTESIAN_POINT ( 'NONE',  ( 22.50000000000000000, 0.000000000000000000, 17.64999999999999858 ) ) ;
#130 = SURFACE_SIDE_STYLE ('',( #101 ) ) ;
#131 = VERTEX_POINT ( 'NONE', #58 ) ;
#132 = CARTESIAN_POINT ( 'NONE',  ( -22.50000000000000000, 0.000000000000000000, 0.000000000000000000 ) ) ;
#133 = FACE_OUTER_BOUND ( 'NONE', #99, .T. ) ;
#134 = FACE_BOUND ( 'NONE', #115, .T. ) ;
#135 = LINE ( 'NONE', #193, #12 ) ;
#136 = CLOSED_SHELL ( 'NONE', ( #149, #120, #80, #174, #42, #78 ) ) ;
#137 = DIRECTION ( 'NONE',  ( 0.000000000000000000, 0.000000000000000000, 1.000000000000000000 ) ) ;
#138 = ORIENTED_EDGE ( 'NONE', *, *, #51, .T. ) ;
#139 = DIRECTION ( 'NONE',  ( -1.000000000000000000, -0.000000000000000000, -0.000000000000000000 ) ) ;
#140 = ORIENTED_EDGE ( 'NONE', *, *, #105, .F. ) ;
#141 = PRODUCT_DEFINITION_FORMATION_WITH_SPECIFIED_SOURCE ( 'ANY', '', #21, .NOT_KNOWN. ) ;
#142 = UNCERTAINTY_MEASURE_WITH_UNIT (LENGTH_MEASURE( 1.000000000000000082E-05 ), #20, 'distance_accuracy_value', 'NONE');
#143 = EDGE_CURVE ( 'NONE', #34, #131, #181, .T. ) ;
#144 = PLANE ( 'NONE',  #87 ) ;
#145 = CYLINDRICAL_SURFACE ( 'NONE', #104, 17.64999999999999858 ) ;
#146 = FACE_OUTER_BOUND ( 'NONE', #175, .T. ) ;
#147 = CARTESIAN_POINT ( 'NONE',  ( -22.50000000000000000, 0.000000000000000000, 0.000000000000000000 ) ) ;
#148 = CARTESIAN_POINT ( 'NONE',  ( -22.50000000000000000, 2.161501600495078284E-15, -17.64999999999999858 ) ) ;
#149 = ADVANCED_FACE ( 'NONE', ( #133 ), #145, .T. ) ;
#150 = LINE ( 'NONE', #53, #60 ) ;
#151 = APPLICATION_PROTOCOL_DEFINITION ( 'draft international standard', 'automotive_design', 1998, #90 ) ;
#152 = DIRECTION ( 'NONE',  ( 1.000000000000000000, 0.000000000000000000, 0.000000000000000000 ) ) ;
#153 = CIRCLE ( 'NONE', #54, 17.64999999999999858 ) ;
#154 =( LENGTH_UNIT ( ) NAMED_UNIT ( * ) SI_UNIT ( .MILLI., .METRE. ) );
#155 = EDGE_CURVE ( 'NONE', #28, #157, #135, .T. ) ;
#156 = ORIENTED_EDGE ( 'NONE', *, *, #6, .T. ) ;
#157 = VERTEX_POINT ( 'NONE', #178 ) ;
#158 = ORIENTED_EDGE ( 'NONE', *, *, #143, .T. ) ;
#159 = FILL_AREA_STYLE_COLOUR ( '', #186 ) ;
#160 = AXIS2_PLACEMENT_3D ( 'NONE', #45, #106, #91 ) ;
#161 = ORIENTED_EDGE ( 'NONE', *, *, #75, .F. ) ;
#162 = DIRECTION ( 'NONE',  ( 0.000000000000000000, 0.000000000000000000, 1.000000000000000000 ) ) ;
#163 = DIRECTION ( 'NONE',  ( 0.000000000000000000, 0.000000000000000000, 1.000000000000000000 ) ) ;
#164 = DIRECTION ( 'NONE',  ( 0.000000000000000000, 0.000000000000000000, 1.000000000000000000 ) ) ;
#165 = CARTESIAN_POINT ( 'NONE',  ( 22.50000000000000000, 0.000000000000000000, 0.000000000000000000 ) ) ;
#166 = DIRECTION ( 'NONE',  ( -1.000000000000000000, -0.000000000000000000, -0.000000000000000000 ) ) ;
#167 = EDGE_CURVE ( 'NONE', #37, #66, #43, .T. ) ;
#168 =( GEOMETRIC_REPRESENTATION_CONTEXT ( 3 ) GLOBAL_UNCERTAINTY_ASSIGNED_CONTEXT ( ( #190 ) ) GLOBAL_UNIT_ASSIGNED_CONTEXT ( ( #154, #31, #114 ) ) REPRESENTATION_CONTEXT ( 'NONE', 'WORKASPACE' ) );
#169 = AXIS2_PLACEMENT_3D ( 'NONE', #197, #24, #194 ) ;
#170 = EDGE_LOOP ( 'NONE', ( #113, #140 ) ) ;
#171 = DIRECTION ( 'NONE',  ( -0.000000000000000000, 0.000000000000000000, 1.000000000000000000 ) ) ;
#172 = ORIENTED_EDGE ( 'NONE', *, *, #182, .F. ) ;
#173 = ORIENTED_EDGE ( 'NONE', *, *, #155, .T. ) ;
#174 = ADVANCED_FACE ( 'NONE', ( #177 ), #10, .F. ) ;
#175 = EDGE_LOOP ( 'NONE', ( #64, #189, #173, #38 ) ) ;
#176 = AXIS2_PLACEMENT_3D ( 'NONE', #179, #191, #111 ) ;
#177 = FACE_OUTER_BOUND ( 'NONE', #102, .T. ) ;
#178 = CARTESIAN_POINT ( 'NONE',  ( -22.50000000000000000, 0.000000000000000000, 17.64999999999999858 ) ) ;
#179 = CARTESIAN_POINT ( 'NONE',  ( -22.50000000000000000, 17.64999999999999858, 0.000000000000000000 ) ) ;
#180 = CARTESIAN_POINT ( 'NONE',  ( -22.50000000000000000, 0.000000000000000000, 0.000000000000000000 ) ) ;
#181 = CIRCLE ( 'NONE', #98, 15.25000000000000000 ) ;
#182 = EDGE_CURVE ( 'NONE', #85, #100, #81, .T. ) ;
#183 = DIRECTION ( 'NONE',  ( -1.000000000000000000, -0.000000000000000000, -0.000000000000000000 ) ) ;
#184 = AXIS2_PLACEMENT_3D ( 'NONE', #165, #183, #25 ) ;
#185 = SHAPE_DEFINITION_REPRESENTATION ( #84, #40 ) ;
#186 = COLOUR_RGB ( '',0.7921568627450980005, 0.8196078431372548767, 0.9333333333333333481 ) ;
#187 = EDGE_LOOP ( 'NONE', ( #68, #35 ) ) ;
#188 = PRESENTATION_STYLE_ASSIGNMENT (( #127 ) ) ;
#189 = ORIENTED_EDGE ( 'NONE', *, *, #105, .T. ) ;
#190 = UNCERTAINTY_MEASURE_WITH_UNIT (LENGTH_MEASURE( 1.000000000000000082E-05 ), #154, 'distance_accuracy_value', 'NONE');
#191 = DIRECTION ( 'NONE',  ( 1.000000000000000000, 0.000000000000000000, 0.000000000000000000 ) ) ;
#192 = AXIS2_PLACEMENT_3D ( 'NONE', #180, #13, #164 ) ;
#193 = CARTESIAN_POINT ( 'NONE',  ( -22.50000000000000000, 0.000000000000000000, 17.64999999999999858 ) ) ;
#194 = DIRECTION ( 'NONE',  ( 0.000000000000000000, 0.000000000000000000, 1.000000000000000000 ) ) ;
#195 = CARTESIAN_POINT ( 'NONE',  ( 22.50000000000000000, 1.867586368699713770E-15, -15.25000000000000000 ) ) ;
#196 = STYLED_ITEM ( 'NONE', ( #188 ), #33 ) ;
#197 = CARTESIAN_POINT ( 'NONE',  ( -22.50000000000000000, 0.000000000000000000, 0.000000000000000000 ) ) ;
#198 = AXIS2_PLACEMENT_3D ( 'NONE', #16, #139, #118 ) ;
#199 = EDGE_CURVE ( 'NONE', #100, #131, #150, .T. ) ;
ENDSEC;
END-ISO-10303-21;
