ISO-10303-21;
HEADER;
FILE_DESCRIPTION (( 'STEP AP214' ),
    '1' );
FILE_NAME ('2046584.STEP',
    '2025-01-24T14:37:03',
    ( '' ),
    ( '' ),
    'SwSTEP 2.0',
    'SolidWorks 2024',
    '' );
FILE_SCHEMA (( 'AUTOMOTIVE_DESIGN' ));
ENDSEC;

DATA;
#1 = CARTESIAN_POINT ( 'NONE',  ( -29.99999999999999289, 1.561424668912875506E-15, -12.75000000000000178 ) ) ;
#2 = EDGE_CURVE ( 'NONE', #12, #125, #136, .T. ) ;
#3 = LINE ( 'NONE', #158, #145 ) ;
#4 = PRODUCT_DEFINITION_CONTEXT ( 'detailed design', #177, 'design' ) ;
#5 = DIRECTION ( 'NONE',  ( 0.000000000000000000, 0.000000000000000000, 1.000000000000000000 ) ) ;
#6 = DIRECTION ( 'NONE',  ( 0.000000000000000000, 0.000000000000000000, 1.000000000000000000 ) ) ;
#7 = ADVANCED_FACE ( 'NONE', ( #68 ), #50, .F. ) ;
#8 = DIRECTION ( 'NONE',  ( -1.000000000000000000, -0.000000000000000000, -0.000000000000000000 ) ) ;
#9 = PRODUCT_CONTEXT ( 'NONE', #156, 'mechanical' ) ;
#10 = CIRCLE ( 'NONE', #19, 12.75000000000000000 ) ;
#11 = CIRCLE ( 'NONE', #121, 13.99999999999999467 ) ;
#12 = VERTEX_POINT ( 'NONE', #122 ) ;
#13 = ORIENTED_EDGE ( 'NONE', *, *, #115, .F. ) ;
#14 = CARTESIAN_POINT ( 'NONE',  ( -30.00000000000000000, 0.000000000000000000, 0.000000000000000000 ) ) ;
#15 = DIRECTION ( 'NONE',  ( 0.000000000000000000, 0.000000000000000000, 1.000000000000000000 ) ) ;
#16 = CARTESIAN_POINT ( 'NONE',  ( -30.00000000000000000, 0.000000000000000000, 0.000000000000000000 ) ) ;
#17 =( GEOMETRIC_REPRESENTATION_CONTEXT ( 3 ) GLOBAL_UNCERTAINTY_ASSIGNED_CONTEXT ( ( #24 ) ) GLOBAL_UNIT_ASSIGNED_CONTEXT ( ( #114, #81, #127 ) ) REPRESENTATION_CONTEXT ( 'NONE', 'WORKASPACE' ) );
#18 = EDGE_CURVE ( 'NONE', #85, #131, #103, .T. ) ;
#19 = AXIS2_PLACEMENT_3D ( 'NONE', #113, #111, #41 ) ;
#20 = ADVANCED_FACE ( 'NONE', ( #93 ), #38, .T. ) ;
#21 = DIRECTION ( 'NONE',  ( -1.000000000000000000, -0.000000000000000000, -0.000000000000000000 ) ) ;
#22 = ORIENTED_EDGE ( 'NONE', *, *, #115, .T. ) ;
#23 = CARTESIAN_POINT ( 'NONE',  ( 30.00000000000000000, 13.99999999999999467, 0.000000000000000000 ) ) ;
#24 = UNCERTAINTY_MEASURE_WITH_UNIT (LENGTH_MEASURE( 1.000000000000000082E-05 ), #114, 'distance_accuracy_value', 'NONE');
#25 = ORIENTED_EDGE ( 'NONE', *, *, #170, .F. ) ;
#26 = APPLICATION_PROTOCOL_DEFINITION ( 'draft international standard', 'automotive_design', 1998, #156 ) ;
#27 = CARTESIAN_POINT ( 'NONE',  ( -30.00000000000000000, 1.714505518806294244E-15, -13.99999999999999467 ) ) ;
#28 = VECTOR ( 'NONE', #176, 1000.000000000000000 ) ;
#29 = ORIENTED_EDGE ( 'NONE', *, *, #100, .F. ) ;
#30 = ORIENTED_EDGE ( 'NONE', *, *, #92, .T. ) ;
#31 = DIRECTION ( 'NONE',  ( -1.000000000000000000, -0.000000000000000000, -0.000000000000000000 ) ) ;
#32 = PRESENTATION_STYLE_ASSIGNMENT (( #62 ) ) ;
#33 = DIRECTION ( 'NONE',  ( 0.000000000000000000, 0.000000000000000000, 1.000000000000000000 ) ) ;
#34 = PRODUCT ( '2046584', '2046584', '', ( #9 ) ) ;
#35 = ADVANCED_FACE ( 'NONE', ( #77, #69 ), #51, .F. ) ;
#36 = AXIS2_PLACEMENT_3D ( 'NONE', #185, #21, #6 ) ;
#37 = EDGE_LOOP ( 'NONE', ( #42, #147 ) ) ;
#38 = CYLINDRICAL_SURFACE ( 'NONE', #36, 13.99999999999999822 ) ;
#39 = CARTESIAN_POINT ( 'NONE',  ( -29.99999999999999289, 0.000000000000000000, 0.000000000000000000 ) ) ;
#40 = CARTESIAN_POINT ( 'NONE',  ( 30.00000000000000000, 1.714505518806294244E-15, -13.99999999999999467 ) ) ;
#41 = DIRECTION ( 'NONE',  ( 0.000000000000000000, 0.000000000000000000, 1.000000000000000000 ) ) ;
#42 = ORIENTED_EDGE ( 'NONE', *, *, #67, .F. ) ;
#43 = SHAPE_DEFINITION_REPRESENTATION ( #169, #98 ) ;
#44 = FILL_AREA_STYLE_COLOUR ( '', #163 ) ;
#45 = VECTOR ( 'NONE', #167, 1000.000000000000000 ) ;
#46 = CARTESIAN_POINT ( 'NONE',  ( -29.99999999999999289, 0.000000000000000000, 0.000000000000000000 ) ) ;
#47 =( LENGTH_UNIT ( ) NAMED_UNIT ( * ) SI_UNIT ( .MILLI., .METRE. ) );
#48 = EDGE_CURVE ( 'NONE', #125, #12, #10, .T. ) ;
#49 = AXIS2_PLACEMENT_3D ( 'NONE', #124, #187, #139 ) ;
#50 = CYLINDRICAL_SURFACE ( 'NONE', #90, 12.75000000000000178 ) ;
#51 = PLANE ( 'NONE',  #60 ) ;
#52 = ADVANCED_FACE ( 'NONE', ( #173 ), #97, .T. ) ;
#53 = VERTEX_POINT ( 'NONE', #95 ) ;
#54 = DIRECTION ( 'NONE',  ( -1.000000000000000000, 0.000000000000000000, -0.000000000000000000 ) ) ;
#55 = ORIENTED_EDGE ( 'NONE', *, *, #18, .T. ) ;
#56 = CARTESIAN_POINT ( 'NONE',  ( -29.99999999999999289, 1.714505518806294441E-15, -13.99999999999999822 ) ) ;
#57 = DIRECTION ( 'NONE',  ( 1.000000000000000000, 0.000000000000000000, 0.000000000000000000 ) ) ;
#58 = ORIENTED_EDGE ( 'NONE', *, *, #159, .T. ) ;
#59 = CARTESIAN_POINT ( 'NONE',  ( -30.00000000000000000, 0.000000000000000000, 0.000000000000000000 ) ) ;
#60 = AXIS2_PLACEMENT_3D ( 'NONE', #23, #54, #175 ) ;
#61 = DIRECTION ( 'NONE',  ( -1.000000000000000000, -0.000000000000000000, -0.000000000000000000 ) ) ;
#62 = SURFACE_STYLE_USAGE ( .BOTH. , #120 ) ;
#63 = EDGE_CURVE ( 'NONE', #172, #53, #3, .T. ) ;
#64 = CIRCLE ( 'NONE', #129, 13.99999999999999467 ) ;
#65 = DIRECTION ( 'NONE',  ( 0.000000000000000000, 0.000000000000000000, -1.000000000000000000 ) ) ;
#66 = DIRECTION ( 'NONE',  ( -1.000000000000000000, -0.000000000000000000, -0.000000000000000000 ) ) ;
#67 = EDGE_CURVE ( 'NONE', #131, #85, #128, .T. ) ;
#68 = FACE_OUTER_BOUND ( 'NONE', #116, .T. ) ;
#69 = FACE_BOUND ( 'NONE', #178, .T. ) ;
#70 = DIRECTION ( 'NONE',  ( 0.000000000000000000, 0.000000000000000000, 1.000000000000000000 ) ) ;
#71 = ORIENTED_EDGE ( 'NONE', *, *, #194, .F. ) ;
#72 = CARTESIAN_POINT ( 'NONE',  ( -30.00000000000000000, 1.561424668912875308E-15, -12.75000000000000000 ) ) ;
#73 =( NAMED_UNIT ( * ) PLANE_ANGLE_UNIT ( ) SI_UNIT ( $, .RADIAN. ) );
#74 = AXIS2_PLACEMENT_3D ( 'NONE', #46, #137, #75 ) ;
#75 = DIRECTION ( 'NONE',  ( 0.000000000000000000, 0.000000000000000000, 1.000000000000000000 ) ) ;
#76 = UNCERTAINTY_MEASURE_WITH_UNIT (LENGTH_MEASURE( 1.000000000000000082E-05 ), #47, 'distance_accuracy_value', 'NONE');
#77 = FACE_OUTER_BOUND ( 'NONE', #94, .T. ) ;
#78 = ORIENTED_EDGE ( 'NONE', *, *, #170, .T. ) ;
#79 = CARTESIAN_POINT ( 'NONE',  ( -30.00000000000000000, 0.000000000000000000, 0.000000000000000000 ) ) ;
#80 = ORIENTED_EDGE ( 'NONE', *, *, #130, .T. ) ;
#81 =( NAMED_UNIT ( * ) PLANE_ANGLE_UNIT ( ) SI_UNIT ( $, .RADIAN. ) );
#82 = AXIS2_PLACEMENT_3D ( 'NONE', #79, #155, #141 ) ;
#83 = MECHANICAL_DESIGN_GEOMETRIC_PRESENTATION_REPRESENTATION (  '', ( #154 ), #106 ) ;
#84 = ADVANCED_FACE ( 'NONE', ( #168 ), #133, .F. ) ;
#85 = VERTEX_POINT ( 'NONE', #72 ) ;
#86 = SURFACE_STYLE_FILL_AREA ( #104 ) ;
#87 = FACE_BOUND ( 'NONE', #37, .T. ) ;
#88 = CARTESIAN_POINT ( 'NONE',  ( 30.00000000000000000, 0.000000000000000000, 0.000000000000000000 ) ) ;
#89 = FACE_OUTER_BOUND ( 'NONE', #165, .T. ) ;
#90 = AXIS2_PLACEMENT_3D ( 'NONE', #39, #96, #70 ) ;
#91 = PRODUCT_DEFINITION_FORMATION_WITH_SPECIFIED_SOURCE ( 'ANY', '', #34, .NOT_KNOWN. ) ;
#92 = EDGE_CURVE ( 'NONE', #180, #172, #99, .T. ) ;
#93 = FACE_OUTER_BOUND ( 'NONE', #160, .T. ) ;
#94 = EDGE_LOOP ( 'NONE', ( #13, #132 ) ) ;
#95 = CARTESIAN_POINT ( 'NONE',  ( -30.00000000000000000, 0.000000000000000000, 13.99999999999999467 ) ) ;
#96 = DIRECTION ( 'NONE',  ( -1.000000000000000000, -0.000000000000000000, -0.000000000000000000 ) ) ;
#97 = CYLINDRICAL_SURFACE ( 'NONE', #49, 13.99999999999999822 ) ;
#98 = ADVANCED_BREP_SHAPE_REPRESENTATION ( '2046584', ( #142, #182 ), #17 ) ;
#99 = CIRCLE ( 'NONE', #171, 13.99999999999999467 ) ;
#100 = EDGE_CURVE ( 'NONE', #12, #131, #151, .T. ) ;
#101 = PRESENTATION_LAYER_ASSIGNMENT (  '', '', ( #154 ) ) ;
#102 = ORIENTED_EDGE ( 'NONE', *, *, #130, .F. ) ;
#103 = CIRCLE ( 'NONE', #82, 12.75000000000000000 ) ;
#104 = FILL_AREA_STYLE ('',( #44 ) ) ;
#105 = DIRECTION ( 'NONE',  ( 1.000000000000000000, 0.000000000000000000, 0.000000000000000000 ) ) ;
#106 =( GEOMETRIC_REPRESENTATION_CONTEXT ( 3 ) GLOBAL_UNCERTAINTY_ASSIGNED_CONTEXT ( ( #76 ) ) GLOBAL_UNIT_ASSIGNED_CONTEXT ( ( #47, #73, #108 ) ) REPRESENTATION_CONTEXT ( 'NONE', 'WORKASPACE' ) );
#107 = DIRECTION ( 'NONE',  ( 0.000000000000000000, 0.000000000000000000, 1.000000000000000000 ) ) ;
#108 =( NAMED_UNIT ( * ) SI_UNIT ( $, .STERADIAN. ) SOLID_ANGLE_UNIT ( ) );
#109 = AXIS2_PLACEMENT_3D ( 'NONE', #59, #149, #118 ) ;
#110 = ORIENTED_EDGE ( 'NONE', *, *, #48, .T. ) ;
#111 = DIRECTION ( 'NONE',  ( -1.000000000000000000, -0.000000000000000000, -0.000000000000000000 ) ) ;
#112 = ORIENTED_EDGE ( 'NONE', *, *, #2, .T. ) ;
#113 = CARTESIAN_POINT ( 'NONE',  ( 30.00000000000000000, 0.000000000000000000, 0.000000000000000000 ) ) ;
#114 =( LENGTH_UNIT ( ) NAMED_UNIT ( * ) SI_UNIT ( .MILLI., .METRE. ) );
#115 = EDGE_CURVE ( 'NONE', #172, #180, #11, .T. ) ;
#116 = EDGE_LOOP ( 'NONE', ( #148, #78, #55, #29 ) ) ;
#117 = ORIENTED_EDGE ( 'NONE', *, *, #2, .F. ) ;
#118 = DIRECTION ( 'NONE',  ( 0.000000000000000000, 0.000000000000000000, 1.000000000000000000 ) ) ;
#119 = DIRECTION ( 'NONE',  ( -1.000000000000000000, -0.000000000000000000, -0.000000000000000000 ) ) ;
#120 = SURFACE_SIDE_STYLE ('',( #86 ) ) ;
#121 = AXIS2_PLACEMENT_3D ( 'NONE', #166, #61, #15 ) ;
#122 = CARTESIAN_POINT ( 'NONE',  ( 30.00000000000000000, 0.000000000000000000, 12.75000000000000000 ) ) ;
#123 = ORIENTED_EDGE ( 'NONE', *, *, #100, .T. ) ;
#124 = CARTESIAN_POINT ( 'NONE',  ( -29.99999999999999289, 0.000000000000000000, 0.000000000000000000 ) ) ;
#125 = VERTEX_POINT ( 'NONE', #183 ) ;
#126 = APPLICATION_PROTOCOL_DEFINITION ( 'draft international standard', 'automotive_design', 1998, #177 ) ;
#127 =( NAMED_UNIT ( * ) SI_UNIT ( $, .STERADIAN. ) SOLID_ANGLE_UNIT ( ) );
#128 = CIRCLE ( 'NONE', #162, 12.75000000000000000 ) ;
#129 = AXIS2_PLACEMENT_3D ( 'NONE', #16, #135, #138 ) ;
#130 = EDGE_CURVE ( 'NONE', #186, #53, #199, .T. ) ;
#131 = VERTEX_POINT ( 'NONE', #181 ) ;
#132 = ORIENTED_EDGE ( 'NONE', *, *, #92, .F. ) ;
#133 = CYLINDRICAL_SURFACE ( 'NONE', #74, 12.75000000000000178 ) ;
#134 = CARTESIAN_POINT ( 'NONE',  ( -29.99999999999999289, 0.000000000000000000, 12.75000000000000178 ) ) ;
#135 = DIRECTION ( 'NONE',  ( -1.000000000000000000, -0.000000000000000000, -0.000000000000000000 ) ) ;
#136 = CIRCLE ( 'NONE', #153, 12.75000000000000000 ) ;
#137 = DIRECTION ( 'NONE',  ( -1.000000000000000000, -0.000000000000000000, -0.000000000000000000 ) ) ;
#138 = DIRECTION ( 'NONE',  ( 0.000000000000000000, 0.000000000000000000, 1.000000000000000000 ) ) ;
#139 = DIRECTION ( 'NONE',  ( 0.000000000000000000, 0.000000000000000000, 1.000000000000000000 ) ) ;
#140 = ORIENTED_EDGE ( 'NONE', *, *, #67, .T. ) ;
#141 = DIRECTION ( 'NONE',  ( 0.000000000000000000, 0.000000000000000000, 1.000000000000000000 ) ) ;
#142 = MANIFOLD_SOLID_BREP ( 'DeleteFace2', #190 ) ;
#143 = EDGE_LOOP ( 'NONE', ( #25, #117, #123, #140 ) ) ;
#144 = ADVANCED_FACE ( 'NONE', ( #87, #89 ), #197, .F. ) ;
#145 = VECTOR ( 'NONE', #66, 1000.000000000000000 ) ;
#146 = AXIS2_PLACEMENT_3D ( 'NONE', #152, #105, #65 ) ;
#147 = ORIENTED_EDGE ( 'NONE', *, *, #18, .F. ) ;
#148 = ORIENTED_EDGE ( 'NONE', *, *, #48, .F. ) ;
#149 = DIRECTION ( 'NONE',  ( -1.000000000000000000, -0.000000000000000000, -0.000000000000000000 ) ) ;
#150 = LINE ( 'NONE', #1, #45 ) ;
#151 = LINE ( 'NONE', #134, #198 ) ;
#152 = CARTESIAN_POINT ( 'NONE',  ( -30.00000000000000000, 13.99999999999999467, 0.000000000000000000 ) ) ;
#153 = AXIS2_PLACEMENT_3D ( 'NONE', #174, #8, #5 ) ;
#154 = STYLED_ITEM ( 'NONE', ( #32 ), #142 ) ;
#155 = DIRECTION ( 'NONE',  ( -1.000000000000000000, -0.000000000000000000, -0.000000000000000000 ) ) ;
#156 = APPLICATION_CONTEXT ( 'automotive_design' ) ;
#157 = ORIENTED_EDGE ( 'NONE', *, *, #63, .F. ) ;
#158 = CARTESIAN_POINT ( 'NONE',  ( -29.99999999999999289, 0.000000000000000000, 13.99999999999999822 ) ) ;
#159 = EDGE_CURVE ( 'NONE', #53, #186, #64, .T. ) ;
#160 = EDGE_LOOP ( 'NONE', ( #22, #193, #164, #157 ) ) ;
#161 = LINE ( 'NONE', #56, #28 ) ;
#162 = AXIS2_PLACEMENT_3D ( 'NONE', #14, #31, #33 ) ;
#163 = COLOUR_RGB ( '',0.7921568627450980005, 0.8196078431372548767, 0.9333333333333333481 ) ;
#164 = ORIENTED_EDGE ( 'NONE', *, *, #159, .F. ) ;
#165 = EDGE_LOOP ( 'NONE', ( #58, #80 ) ) ;
#166 = CARTESIAN_POINT ( 'NONE',  ( 30.00000000000000000, 0.000000000000000000, 0.000000000000000000 ) ) ;
#167 = DIRECTION ( 'NONE',  ( -1.000000000000000000, -0.000000000000000000, -0.000000000000000000 ) ) ;
#168 = FACE_OUTER_BOUND ( 'NONE', #143, .T. ) ;
#169 = PRODUCT_DEFINITION_SHAPE ( 'NONE', 'NONE',  #179 ) ;
#170 = EDGE_CURVE ( 'NONE', #125, #85, #150, .T. ) ;
#171 = AXIS2_PLACEMENT_3D ( 'NONE', #88, #119, #107 ) ;
#172 = VERTEX_POINT ( 'NONE', #196 ) ;
#173 = FACE_OUTER_BOUND ( 'NONE', #192, .T. ) ;
#174 = CARTESIAN_POINT ( 'NONE',  ( 30.00000000000000000, 0.000000000000000000, 0.000000000000000000 ) ) ;
#175 = DIRECTION ( 'NONE',  ( -0.000000000000000000, 0.000000000000000000, 1.000000000000000000 ) ) ;
#176 = DIRECTION ( 'NONE',  ( -1.000000000000000000, -0.000000000000000000, -0.000000000000000000 ) ) ;
#177 = APPLICATION_CONTEXT ( 'automotive_design' ) ;
#178 = EDGE_LOOP ( 'NONE', ( #112, #110 ) ) ;
#179 = PRODUCT_DEFINITION ( 'UNKNOWN', '', #91, #4 ) ;
#180 = VERTEX_POINT ( 'NONE', #40 ) ;
#181 = CARTESIAN_POINT ( 'NONE',  ( -30.00000000000000000, 0.000000000000000000, 12.75000000000000000 ) ) ;
#182 = AXIS2_PLACEMENT_3D ( 'NONE', #189, #191, #57 ) ;
#183 = CARTESIAN_POINT ( 'NONE',  ( 30.00000000000000000, 1.561424668912875308E-15, -12.75000000000000000 ) ) ;
#184 = PRODUCT_RELATED_PRODUCT_CATEGORY ( 'part', '', ( #34 ) ) ;
#185 = CARTESIAN_POINT ( 'NONE',  ( -29.99999999999999289, 0.000000000000000000, 0.000000000000000000 ) ) ;
#186 = VERTEX_POINT ( 'NONE', #27 ) ;
#187 = DIRECTION ( 'NONE',  ( -1.000000000000000000, -0.000000000000000000, -0.000000000000000000 ) ) ;
#188 = ORIENTED_EDGE ( 'NONE', *, *, #63, .T. ) ;
#189 = CARTESIAN_POINT ( 'NONE',  ( 0.000000000000000000, 0.000000000000000000, 0.000000000000000000 ) ) ;
#190 = CLOSED_SHELL ( 'NONE', ( #20, #7, #144, #84, #35, #52 ) ) ;
#191 = DIRECTION ( 'NONE',  ( 0.000000000000000000, 0.000000000000000000, 1.000000000000000000 ) ) ;
#192 = EDGE_LOOP ( 'NONE', ( #71, #30, #188, #102 ) ) ;
#193 = ORIENTED_EDGE ( 'NONE', *, *, #194, .T. ) ;
#194 = EDGE_CURVE ( 'NONE', #180, #186, #161, .T. ) ;
#195 = DIRECTION ( 'NONE',  ( -1.000000000000000000, -0.000000000000000000, -0.000000000000000000 ) ) ;
#196 = CARTESIAN_POINT ( 'NONE',  ( 30.00000000000000000, 0.000000000000000000, 13.99999999999999467 ) ) ;
#197 = PLANE ( 'NONE',  #146 ) ;
#198 = VECTOR ( 'NONE', #195, 1000.000000000000000 ) ;
#199 = CIRCLE ( 'NONE', #109, 13.99999999999999467 ) ;
ENDSEC;
END-ISO-10303-21;
