ISO-10303-21;
HEADER;
FILE_DESCRIPTION (( 'STEP AP214' ),
    '1' );
FILE_NAME ('2046585.STEP',
    '2025-01-24T14:38:42',
    ( '' ),
    ( '' ),
    'SwSTEP 2.0',
    'SolidWorks 2024',
    '' );
FILE_SCHEMA (( 'AUTOMOTIVE_DESIGN' ));
ENDSEC;

DATA;
#1 = EDGE_LOOP ( 'NONE', ( #35, #5 ) ) ;
#2 = EDGE_LOOP ( 'NONE', ( #3, #170 ) ) ;
#3 = ORIENTED_EDGE ( 'NONE', *, *, #23, .T. ) ;
#4 = EDGE_LOOP ( 'NONE', ( #62, #146 ) ) ;
#5 = ORIENTED_EDGE ( 'NONE', *, *, #57, .T. ) ;
#6 = DIRECTION ( 'NONE',  ( 0.000000000000000000, 0.000000000000000000, 1.000000000000000000 ) ) ;
#7 = CIRCLE ( 'NONE', #171, 17.55000000000000071 ) ;
#8 = CARTESIAN_POINT ( 'NONE',  ( -35.00000000000000000, 0.000000000000000000, 0.000000000000000000 ) ) ;
#9 = EDGE_CURVE ( 'NONE', #154, #32, #187, .T. ) ;
#10 = AXIS2_PLACEMENT_3D ( 'NONE', #94, #29, #45 ) ;
#11 = CARTESIAN_POINT ( 'NONE',  ( -35.00000000000000000, 0.000000000000000000, 0.000000000000000000 ) ) ;
#12 =( LENGTH_UNIT ( ) NAMED_UNIT ( * ) SI_UNIT ( .MILLI., .METRE. ) );
#13 = ADVANCED_FACE ( 'NONE', ( #191, #86 ), #103, .F. ) ;
#14 = FACE_BOUND ( 'NONE', #2, .T. ) ;
#15 = SHAPE_DEFINITION_REPRESENTATION ( #38, #167 ) ;
#16 = CLOSED_SHELL ( 'NONE', ( #40, #188, #13, #190, #199, #95 ) ) ;
#17 = DIRECTION ( 'NONE',  ( -1.000000000000000000, -0.000000000000000000, -0.000000000000000000 ) ) ;
#18 = EDGE_LOOP ( 'NONE', ( #186, #66, #126, #169 ) ) ;
#19 = EDGE_LOOP ( 'NONE', ( #67, #141, #33, #64 ) ) ;
#20 = DIRECTION ( 'NONE',  ( 0.000000000000000000, 0.000000000000000000, 1.000000000000000000 ) ) ;
#21 =( GEOMETRIC_REPRESENTATION_CONTEXT ( 3 ) GLOBAL_UNCERTAINTY_ASSIGNED_CONTEXT ( ( #52 ) ) GLOBAL_UNIT_ASSIGNED_CONTEXT ( ( #12, #136, #91 ) ) REPRESENTATION_CONTEXT ( 'NONE', 'WORKASPACE' ) );
#22 = DIRECTION ( 'NONE',  ( -1.000000000000000000, -0.000000000000000000, -0.000000000000000000 ) ) ;
#23 = EDGE_CURVE ( 'NONE', #154, #155, #50, .T. ) ;
#24 = AXIS2_PLACEMENT_3D ( 'NONE', #8, #22, #85 ) ;
#25 = DIRECTION ( 'NONE',  ( -1.000000000000000000, -0.000000000000000000, -0.000000000000000000 ) ) ;
#26 = CARTESIAN_POINT ( 'NONE',  ( 35.00000000000000000, 2.149255132503604927E-15, -17.55000000000000071 ) ) ;
#27 = DIRECTION ( 'NONE',  ( 0.000000000000000000, 0.000000000000000000, 1.000000000000000000 ) ) ;
#28 = DIRECTION ( 'NONE',  ( -1.000000000000000000, -0.000000000000000000, -0.000000000000000000 ) ) ;
#29 = DIRECTION ( 'NONE',  ( -1.000000000000000000, -0.000000000000000000, -0.000000000000000000 ) ) ;
#30 = FACE_OUTER_BOUND ( 'NONE', #19, .T. ) ;
#31 = AXIS2_PLACEMENT_3D ( 'NONE', #176, #157, #6 ) ;
#32 = VERTEX_POINT ( 'NONE', #71 ) ;
#33 = ORIENTED_EDGE ( 'NONE', *, *, #127, .T. ) ;
#34 = EDGE_CURVE ( 'NONE', #80, #173, #36, .T. ) ;
#35 = ORIENTED_EDGE ( 'NONE', *, *, #139, .T. ) ;
#36 = LINE ( 'NONE', #131, #65 ) ;
#37 = PRESENTATION_STYLE_ASSIGNMENT (( #82 ) ) ;
#38 = PRODUCT_DEFINITION_SHAPE ( 'NONE', 'NONE',  #121 ) ;
#39 = DIRECTION ( 'NONE',  ( -1.000000000000000000, -0.000000000000000000, -0.000000000000000000 ) ) ;
#40 = ADVANCED_FACE ( 'NONE', ( #100 ), #148, .T. ) ;
#41 = AXIS2_PLACEMENT_3D ( 'NONE', #54, #25, #99 ) ;
#42 = CARTESIAN_POINT ( 'NONE',  ( 35.00000000000000000, 17.55000000000000071, 0.000000000000000000 ) ) ;
#43 = FACE_OUTER_BOUND ( 'NONE', #18, .T. ) ;
#44 = CARTESIAN_POINT ( 'NONE',  ( -35.00000000000000000, 1.996174282610185991E-15, -16.30000000000000071 ) ) ;
#45 = DIRECTION ( 'NONE',  ( 0.000000000000000000, 0.000000000000000000, 1.000000000000000000 ) ) ;
#46 = CIRCLE ( 'NONE', #156, 16.30000000000000071 ) ;
#47 = CIRCLE ( 'NONE', #74, 16.30000000000000071 ) ;
#48 = VERTEX_POINT ( 'NONE', #192 ) ;
#49 = PRODUCT_DEFINITION_CONTEXT ( 'detailed design', #92, 'design' ) ;
#50 = CIRCLE ( 'NONE', #160, 16.30000000000000071 ) ;
#51 = EDGE_LOOP ( 'NONE', ( #113, #97, #111, #143 ) ) ;
#52 = UNCERTAINTY_MEASURE_WITH_UNIT (LENGTH_MEASURE( 1.000000000000000082E-05 ), #12, 'distance_accuracy_value', 'NONE');
#53 = DIRECTION ( 'NONE',  ( -1.000000000000000000, -0.000000000000000000, -0.000000000000000000 ) ) ;
#54 = CARTESIAN_POINT ( 'NONE',  ( -35.00000000000000000, 0.000000000000000000, 0.000000000000000000 ) ) ;
#55 = LINE ( 'NONE', #177, #134 ) ;
#56 = DIRECTION ( 'NONE',  ( 0.000000000000000000, 0.000000000000000000, 1.000000000000000000 ) ) ;
#57 = EDGE_CURVE ( 'NONE', #63, #173, #122, .T. ) ;
#58 = APPLICATION_PROTOCOL_DEFINITION ( 'draft international standard', 'automotive_design', 1998, #137 ) ;
#59 = VECTOR ( 'NONE', #68, 1000.000000000000000 ) ;
#60 = MANIFOLD_SOLID_BREP ( 'DeleteFace2', #16 ) ;
#61 = DIRECTION ( 'NONE',  ( 1.000000000000000000, 0.000000000000000000, 0.000000000000000000 ) ) ;
#62 = ORIENTED_EDGE ( 'NONE', *, *, #79, .F. ) ;
#63 = VERTEX_POINT ( 'NONE', #180 ) ;
#64 = ORIENTED_EDGE ( 'NONE', *, *, #9, .F. ) ;
#65 = VECTOR ( 'NONE', #53, 1000.000000000000000 ) ;
#66 = ORIENTED_EDGE ( 'NONE', *, *, #23, .F. ) ;
#67 = ORIENTED_EDGE ( 'NONE', *, *, #197, .F. ) ;
#68 = DIRECTION ( 'NONE',  ( -1.000000000000000000, -0.000000000000000000, -0.000000000000000000 ) ) ;
#69 = DIRECTION ( 'NONE',  ( -1.000000000000000000, -0.000000000000000000, -0.000000000000000000 ) ) ;
#70 = FILL_AREA_STYLE ('',( #150 ) ) ;
#71 = CARTESIAN_POINT ( 'NONE',  ( -35.00000000000000000, 0.000000000000000000, 16.30000000000000071 ) ) ;
#72 = EDGE_CURVE ( 'NONE', #125, #80, #7, .T. ) ;
#73 = CARTESIAN_POINT ( 'NONE',  ( -35.00000000000000000, 0.000000000000000000, 0.000000000000000000 ) ) ;
#74 = AXIS2_PLACEMENT_3D ( 'NONE', #109, #89, #183 ) ;
#75 = AXIS2_PLACEMENT_3D ( 'NONE', #11, #193, #56 ) ;
#76 = DIRECTION ( 'NONE',  ( 0.000000000000000000, 0.000000000000000000, 1.000000000000000000 ) ) ;
#77 = ORIENTED_EDGE ( 'NONE', *, *, #57, .F. ) ;
#78 = EDGE_LOOP ( 'NONE', ( #145, #110 ) ) ;
#79 = EDGE_CURVE ( 'NONE', #32, #48, #198, .T. ) ;
#80 = VERTEX_POINT ( 'NONE', #105 ) ;
#81 = AXIS2_PLACEMENT_3D ( 'NONE', #181, #107, #61 ) ;
#82 = SURFACE_STYLE_USAGE ( .BOTH. , #98 ) ;
#83 = CARTESIAN_POINT ( 'NONE',  ( 35.00000000000000000, 0.000000000000000000, 0.000000000000000000 ) ) ;
#84 = STYLED_ITEM ( 'NONE', ( #37 ), #60 ) ;
#85 = DIRECTION ( 'NONE',  ( 0.000000000000000000, 0.000000000000000000, 1.000000000000000000 ) ) ;
#86 = FACE_OUTER_BOUND ( 'NONE', #1, .T. ) ;
#87 = VECTOR ( 'NONE', #28, 1000.000000000000000 ) ;
#88 = CARTESIAN_POINT ( 'NONE',  ( -35.00000000000000000, 0.000000000000000000, 0.000000000000000000 ) ) ;
#89 = DIRECTION ( 'NONE',  ( -1.000000000000000000, -0.000000000000000000, -0.000000000000000000 ) ) ;
#90 = FACE_OUTER_BOUND ( 'NONE', #78, .T. ) ;
#91 =( NAMED_UNIT ( * ) SI_UNIT ( $, .STERADIAN. ) SOLID_ANGLE_UNIT ( ) );
#92 = APPLICATION_CONTEXT ( 'automotive_design' ) ;
#93 = PRESENTATION_LAYER_ASSIGNMENT (  '', '', ( #84 ) ) ;
#94 = CARTESIAN_POINT ( 'NONE',  ( 35.00000000000000000, 0.000000000000000000, 0.000000000000000000 ) ) ;
#95 = ADVANCED_FACE ( 'NONE', ( #118 ), #132, .T. ) ;
#96 = EDGE_LOOP ( 'NONE', ( #144, #112, #129, #77 ) ) ;
#97 = ORIENTED_EDGE ( 'NONE', *, *, #101, .T. ) ;
#98 = SURFACE_SIDE_STYLE ('',( #116 ) ) ;
#99 = DIRECTION ( 'NONE',  ( 0.000000000000000000, 0.000000000000000000, 1.000000000000000000 ) ) ;
#100 = FACE_OUTER_BOUND ( 'NONE', #51, .T. ) ;
#101 = EDGE_CURVE ( 'NONE', #125, #63, #55, .T. ) ;
#102 = MECHANICAL_DESIGN_GEOMETRIC_PRESENTATION_REPRESENTATION (  '', ( #84 ), #138 ) ;
#103 = PLANE ( 'NONE',  #128 ) ;
#104 = AXIS2_PLACEMENT_3D ( 'NONE', #42, #120, #152 ) ;
#105 = CARTESIAN_POINT ( 'NONE',  ( 35.00000000000000000, 0.000000000000000000, 17.55000000000000071 ) ) ;
#106 = CARTESIAN_POINT ( 'NONE',  ( 35.00000000000000000, 1.996174282610185991E-15, -16.30000000000000071 ) ) ;
#107 = DIRECTION ( 'NONE',  ( 0.000000000000000000, 0.000000000000000000, 1.000000000000000000 ) ) ;
#108 = CARTESIAN_POINT ( 'NONE',  ( 35.00000000000000000, 0.000000000000000000, 16.30000000000000071 ) ) ;
#109 = CARTESIAN_POINT ( 'NONE',  ( 35.00000000000000000, 0.000000000000000000, 0.000000000000000000 ) ) ;
#110 = ORIENTED_EDGE ( 'NONE', *, *, #72, .F. ) ;
#111 = ORIENTED_EDGE ( 'NONE', *, *, #139, .F. ) ;
#112 = ORIENTED_EDGE ( 'NONE', *, *, #72, .T. ) ;
#113 = ORIENTED_EDGE ( 'NONE', *, *, #164, .T. ) ;
#114 = DIRECTION ( 'NONE',  ( 0.000000000000000000, 0.000000000000000000, 1.000000000000000000 ) ) ;
#115 = DIRECTION ( 'NONE',  ( 0.000000000000000000, 0.000000000000000000, 1.000000000000000000 ) ) ;
#116 = SURFACE_STYLE_FILL_AREA ( #70 ) ;
#117 = DIRECTION ( 'NONE',  ( 0.000000000000000000, 0.000000000000000000, 1.000000000000000000 ) ) ;
#118 = FACE_OUTER_BOUND ( 'NONE', #96, .T. ) ;
#119 = AXIS2_PLACEMENT_3D ( 'NONE', #73, #133, #114 ) ;
#120 = DIRECTION ( 'NONE',  ( -1.000000000000000000, 0.000000000000000000, -0.000000000000000000 ) ) ;
#121 = PRODUCT_DEFINITION ( 'UNKNOWN', '', #196, #49 ) ;
#122 = CIRCLE ( 'NONE', #41, 17.55000000000000071 ) ;
#123 = CARTESIAN_POINT ( 'NONE',  ( -35.00000000000000000, 0.000000000000000000, 17.55000000000000071 ) ) ;
#124 = APPLICATION_PROTOCOL_DEFINITION ( 'draft international standard', 'automotive_design', 1998, #92 ) ;
#125 = VERTEX_POINT ( 'NONE', #26 ) ;
#126 = ORIENTED_EDGE ( 'NONE', *, *, #9, .T. ) ;
#127 = EDGE_CURVE ( 'NONE', #48, #32, #46, .T. ) ;
#128 = AXIS2_PLACEMENT_3D ( 'NONE', #174, #163, #151 ) ;
#129 = ORIENTED_EDGE ( 'NONE', *, *, #34, .T. ) ;
#130 =( LENGTH_UNIT ( ) NAMED_UNIT ( * ) SI_UNIT ( .MILLI., .METRE. ) );
#131 = CARTESIAN_POINT ( 'NONE',  ( -35.00000000000000000, 0.000000000000000000, 17.55000000000000426 ) ) ;
#132 = CYLINDRICAL_SURFACE ( 'NONE', #31, 17.55000000000000426 ) ;
#133 = DIRECTION ( 'NONE',  ( -1.000000000000000000, -0.000000000000000000, -0.000000000000000000 ) ) ;
#134 = VECTOR ( 'NONE', #69, 1000.000000000000000 ) ;
#135 = AXIS2_PLACEMENT_3D ( 'NONE', #140, #17, #76 ) ;
#136 =( NAMED_UNIT ( * ) PLANE_ANGLE_UNIT ( ) SI_UNIT ( $, .RADIAN. ) );
#137 = APPLICATION_CONTEXT ( 'automotive_design' ) ;
#138 =( GEOMETRIC_REPRESENTATION_CONTEXT ( 3 ) GLOBAL_UNCERTAINTY_ASSIGNED_CONTEXT ( ( #189 ) ) GLOBAL_UNIT_ASSIGNED_CONTEXT ( ( #130, #159, #147 ) ) REPRESENTATION_CONTEXT ( 'NONE', 'WORKASPACE' ) );
#139 = EDGE_CURVE ( 'NONE', #173, #63, #179, .T. ) ;
#140 = CARTESIAN_POINT ( 'NONE',  ( -35.00000000000000000, 0.000000000000000000, 0.000000000000000000 ) ) ;
#141 = ORIENTED_EDGE ( 'NONE', *, *, #158, .T. ) ;
#142 = PRODUCT_RELATED_PRODUCT_CATEGORY ( 'part', '', ( #175 ) ) ;
#143 = ORIENTED_EDGE ( 'NONE', *, *, #34, .F. ) ;
#144 = ORIENTED_EDGE ( 'NONE', *, *, #101, .F. ) ;
#145 = ORIENTED_EDGE ( 'NONE', *, *, #164, .F. ) ;
#146 = ORIENTED_EDGE ( 'NONE', *, *, #127, .F. ) ;
#147 =( NAMED_UNIT ( * ) SI_UNIT ( $, .STERADIAN. ) SOLID_ANGLE_UNIT ( ) );
#148 = CYLINDRICAL_SURFACE ( 'NONE', #24, 17.55000000000000426 ) ;
#149 = DIRECTION ( 'NONE',  ( -1.000000000000000000, -0.000000000000000000, -0.000000000000000000 ) ) ;
#150 = FILL_AREA_STYLE_COLOUR ( '', #178 ) ;
#151 = DIRECTION ( 'NONE',  ( 0.000000000000000000, 0.000000000000000000, -1.000000000000000000 ) ) ;
#152 = DIRECTION ( 'NONE',  ( -0.000000000000000000, 0.000000000000000000, 1.000000000000000000 ) ) ;
#153 = PLANE ( 'NONE',  #104 ) ;
#154 = VERTEX_POINT ( 'NONE', #108 ) ;
#155 = VERTEX_POINT ( 'NONE', #106 ) ;
#156 = AXIS2_PLACEMENT_3D ( 'NONE', #88, #39, #117 ) ;
#157 = DIRECTION ( 'NONE',  ( -1.000000000000000000, -0.000000000000000000, -0.000000000000000000 ) ) ;
#158 = EDGE_CURVE ( 'NONE', #155, #48, #165, .T. ) ;
#159 =( NAMED_UNIT ( * ) PLANE_ANGLE_UNIT ( ) SI_UNIT ( $, .RADIAN. ) );
#160 = AXIS2_PLACEMENT_3D ( 'NONE', #161, #194, #20 ) ;
#161 = CARTESIAN_POINT ( 'NONE',  ( 35.00000000000000000, 0.000000000000000000, 0.000000000000000000 ) ) ;
#162 = AXIS2_PLACEMENT_3D ( 'NONE', #185, #195, #27 ) ;
#163 = DIRECTION ( 'NONE',  ( 1.000000000000000000, 0.000000000000000000, 0.000000000000000000 ) ) ;
#164 = EDGE_CURVE ( 'NONE', #80, #125, #182, .T. ) ;
#165 = LINE ( 'NONE', #44, #87 ) ;
#166 = PRODUCT_CONTEXT ( 'NONE', #137, 'mechanical' ) ;
#167 = ADVANCED_BREP_SHAPE_REPRESENTATION ( '2046585', ( #60, #81 ), #21 ) ;
#168 = CYLINDRICAL_SURFACE ( 'NONE', #162, 16.30000000000000071 ) ;
#169 = ORIENTED_EDGE ( 'NONE', *, *, #79, .T. ) ;
#170 = ORIENTED_EDGE ( 'NONE', *, *, #197, .T. ) ;
#171 = AXIS2_PLACEMENT_3D ( 'NONE', #83, #149, #115 ) ;
#172 = CARTESIAN_POINT ( 'NONE',  ( -35.00000000000000000, 0.000000000000000000, 16.30000000000000071 ) ) ;
#173 = VERTEX_POINT ( 'NONE', #123 ) ;
#174 = CARTESIAN_POINT ( 'NONE',  ( -35.00000000000000000, 17.55000000000000071, 0.000000000000000000 ) ) ;
#175 = PRODUCT ( '2046585', '2046585', '', ( #166 ) ) ;
#176 = CARTESIAN_POINT ( 'NONE',  ( -35.00000000000000000, 0.000000000000000000, 0.000000000000000000 ) ) ;
#177 = CARTESIAN_POINT ( 'NONE',  ( -35.00000000000000000, 2.149255132503605321E-15, -17.55000000000000426 ) ) ;
#178 = COLOUR_RGB ( '',0.7921568627450980005, 0.8196078431372548767, 0.9333333333333333481 ) ;
#179 = CIRCLE ( 'NONE', #119, 17.55000000000000071 ) ;
#180 = CARTESIAN_POINT ( 'NONE',  ( -35.00000000000000000, 2.149255132503604927E-15, -17.55000000000000071 ) ) ;
#181 = CARTESIAN_POINT ( 'NONE',  ( 0.000000000000000000, 0.000000000000000000, 0.000000000000000000 ) ) ;
#182 = CIRCLE ( 'NONE', #10, 17.55000000000000071 ) ;
#183 = DIRECTION ( 'NONE',  ( 0.000000000000000000, 0.000000000000000000, 1.000000000000000000 ) ) ;
#184 = CYLINDRICAL_SURFACE ( 'NONE', #135, 16.30000000000000071 ) ;
#185 = CARTESIAN_POINT ( 'NONE',  ( -35.00000000000000000, 0.000000000000000000, 0.000000000000000000 ) ) ;
#186 = ORIENTED_EDGE ( 'NONE', *, *, #158, .F. ) ;
#187 = LINE ( 'NONE', #172, #59 ) ;
#188 = ADVANCED_FACE ( 'NONE', ( #30 ), #168, .F. ) ;
#189 = UNCERTAINTY_MEASURE_WITH_UNIT (LENGTH_MEASURE( 1.000000000000000082E-05 ), #130, 'distance_accuracy_value', 'NONE');
#190 = ADVANCED_FACE ( 'NONE', ( #43 ), #184, .F. ) ;
#191 = FACE_BOUND ( 'NONE', #4, .T. ) ;
#192 = CARTESIAN_POINT ( 'NONE',  ( -35.00000000000000000, 1.996174282610185991E-15, -16.30000000000000071 ) ) ;
#193 = DIRECTION ( 'NONE',  ( -1.000000000000000000, -0.000000000000000000, -0.000000000000000000 ) ) ;
#194 = DIRECTION ( 'NONE',  ( -1.000000000000000000, -0.000000000000000000, -0.000000000000000000 ) ) ;
#195 = DIRECTION ( 'NONE',  ( -1.000000000000000000, -0.000000000000000000, -0.000000000000000000 ) ) ;
#196 = PRODUCT_DEFINITION_FORMATION_WITH_SPECIFIED_SOURCE ( 'ANY', '', #175, .NOT_KNOWN. ) ;
#197 = EDGE_CURVE ( 'NONE', #155, #154, #47, .T. ) ;
#198 = CIRCLE ( 'NONE', #75, 16.30000000000000071 ) ;
#199 = ADVANCED_FACE ( 'NONE', ( #90, #14 ), #153, .F. ) ;
ENDSEC;
END-ISO-10303-21;
