ISO-10303-21;
HEADER;
FILE_DESCRIPTION (( 'STEP AP214' ),
    '1' );
FILE_NAME ('2046598.stp',
    '2022-02-25T07:26:34',
    ( '' ),
    ( '' ),
    'SwSTEP 2.0',
    'SolidWorks 2020',
    '' );
FILE_SCHEMA (( 'AUTOMOTIVE_DESIGN' ));
ENDSEC;

DATA;
#1 = VERTEX_POINT ( 'NONE', #56 ) ;
#2 = AXIS2_PLACEMENT_3D ( 'NONE', #35, #142, #24 ) ;
#3 =( GEOMETRIC_REPRESENTATION_CONTEXT ( 3 ) GLOBAL_UNCERTAINTY_ASSIGNED_CONTEXT ( ( #197 ) ) GLOBAL_UNIT_ASSIGNED_CONTEXT ( ( #182, #14, #75 ) ) REPRESENTATION_CONTEXT ( 'NONE', 'WORKASPACE' ) );
#4 = EDGE_LOOP ( 'NONE', ( #18 ) ) ;
#5 = SURFACE_STYLE_USAGE ( .BOTH. , #99 ) ;
#6 = DIRECTION ( 'NONE',  ( 1.000000000000000000, 0.000000000000000000, 0.000000000000000000 ) ) ;
#7 = EDGE_LOOP ( 'NONE', ( #159 ) ) ;
#8 = DIRECTION ( 'NONE',  ( 1.000000000000000000, 0.000000000000000000, 0.000000000000000000 ) ) ;
#9 = AXIS2_PLACEMENT_3D ( 'NONE', #144, #209, #27 ) ;
#10 = FACE_OUTER_BOUND ( 'NONE', #136, .T. ) ;
#11 = AXIS2_PLACEMENT_3D ( 'NONE', #211, #111, #13 ) ;
#12 = DIRECTION ( 'NONE',  ( 0.000000000000000000, 0.000000000000000000, 1.000000000000000000 ) ) ;
#13 = DIRECTION ( 'NONE',  ( 1.000000000000000000, 0.000000000000000000, 0.000000000000000000 ) ) ;
#14 =( NAMED_UNIT ( * ) PLANE_ANGLE_UNIT ( ) SI_UNIT ( $, .RADIAN. ) );
#15 = STYLED_ITEM ( 'NONE', ( #129 ), #214 ) ;
#16 = ADVANCED_FACE ( 'NONE', ( #101, #87 ), #205, .T. ) ;
#17 = VERTEX_POINT ( 'NONE', #23 ) ;
#18 = ORIENTED_EDGE ( 'NONE', *, *, #30, .F. ) ;
#19 = ORIENTED_EDGE ( 'NONE', *, *, #143, .F. ) ;
#20 = AXIS2_PLACEMENT_3D ( 'NONE', #163, #81, #179 ) ;
#21 = CARTESIAN_POINT ( 'NONE',  ( 0.000000000000000000, 0.000000000000000000, -2999.849999999999909 ) ) ;
#22 = EDGE_LOOP ( 'NONE', ( #19 ) ) ;
#23 = CARTESIAN_POINT ( 'NONE',  ( 24.85000000000000142, 0.000000000000000000, -3000.000000000000000 ) ) ;
#24 = DIRECTION ( 'NONE',  ( 1.000000000000000000, 0.000000000000000000, -0.000000000000000000 ) ) ;
#25 =( NAMED_UNIT ( * ) SI_UNIT ( $, .STERADIAN. ) SOLID_ANGLE_UNIT ( ) );
#26 = DIRECTION ( 'NONE',  ( 1.000000000000000000, 0.000000000000000000, 0.000000000000000000 ) ) ;
#27 = DIRECTION ( 'NONE',  ( 1.000000000000000000, 0.000000000000000000, 0.000000000000000000 ) ) ;
#28 = CYLINDRICAL_SURFACE ( 'NONE', #20, 23.50000000000000355 ) ;
#29 = AXIS2_PLACEMENT_3D ( 'NONE', #147, #165, #128 ) ;
#30 = EDGE_CURVE ( 'NONE', #140, #140, #124, .T. ) ;
#31 = EDGE_LOOP ( 'NONE', ( #104 ) ) ;
#32 = DIRECTION ( 'NONE',  ( 0.000000000000000000, 0.000000000000000000, 1.000000000000000000 ) ) ;
#33 = VERTEX_POINT ( 'NONE', #157 ) ;
#34 = CARTESIAN_POINT ( 'NONE',  ( 25.00000000000000000, 0.000000000000000000, -2999.849999999999909 ) ) ;
#35 = CARTESIAN_POINT ( 'NONE',  ( 0.000000000000000000, 0.000000000000000000, -3000.000000000000000 ) ) ;
#36 = ORIENTED_EDGE ( 'NONE', *, *, #149, .T. ) ;
#37 = EDGE_CURVE ( 'NONE', #191, #191, #154, .T. ) ;
#38 = FACE_BOUND ( 'NONE', #39, .T. ) ;
#39 = EDGE_LOOP ( 'NONE', ( #173 ) ) ;
#40 = DIRECTION ( 'NONE',  ( 1.000000000000000000, 0.000000000000000000, 0.000000000000000000 ) ) ;
#41 = AXIS2_PLACEMENT_3D ( 'NONE', #73, #123, #6 ) ;
#42 = TOROIDAL_SURFACE ( 'NONE', #199, 23.65000000000000568, 0.1499999999999999944 ) ;
#43 = FACE_OUTER_BOUND ( 'NONE', #200, .T. ) ;
#44 = ADVANCED_BREP_SHAPE_REPRESENTATION ( '2046598', ( #214, #60 ), #95 ) ;
#45 = DIRECTION ( 'NONE',  ( 1.000000000000000000, 0.000000000000000000, 0.000000000000000000 ) ) ;
#46 = ADVANCED_FACE ( 'NONE', ( #103, #54 ), #192, .F. ) ;
#47 = AXIS2_PLACEMENT_3D ( 'NONE', #21, #120, #161 ) ;
#48 = COLOUR_RGB ( '',0.7529411764705882248, 0.7529411764705882248, 0.7529411764705882248 ) ;
#49 = ORIENTED_EDGE ( 'NONE', *, *, #72, .T. ) ;
#50 = DIRECTION ( 'NONE',  ( 1.000000000000000000, 0.000000000000000000, 0.000000000000000000 ) ) ;
#51 =( LENGTH_UNIT ( ) NAMED_UNIT ( * ) SI_UNIT ( .MILLI., .METRE. ) );
#52 = EDGE_CURVE ( 'NONE', #98, #98, #70, .T. ) ;
#53 = ORIENTED_EDGE ( 'NONE', *, *, #52, .T. ) ;
#54 = FACE_BOUND ( 'NONE', #190, .T. ) ;
#55 = EDGE_LOOP ( 'NONE', ( #139 ) ) ;
#56 = CARTESIAN_POINT ( 'NONE',  ( 24.85000000000000142, 0.000000000000000000, 0.000000000000000000 ) ) ;
#57 = PLANE ( 'NONE',  #183 ) ;
#58 = DIRECTION ( 'NONE',  ( 0.000000000000000000, 0.000000000000000000, 1.000000000000000000 ) ) ;
#59 = AXIS2_PLACEMENT_3D ( 'NONE', #176, #88, #206 ) ;
#60 = AXIS2_PLACEMENT_3D ( 'NONE', #186, #32, #50 ) ;
#61 = DIRECTION ( 'NONE',  ( 0.000000000000000000, 0.000000000000000000, 1.000000000000000000 ) ) ;
#62 = DIRECTION ( 'NONE',  ( 1.000000000000000000, 0.000000000000000000, 0.000000000000000000 ) ) ;
#63 = CARTESIAN_POINT ( 'NONE',  ( 0.000000000000000000, 0.000000000000000000, -0.1500000000000945022 ) ) ;
#64 = APPLICATION_CONTEXT ( 'automotive_design' ) ;
#65 = FACE_OUTER_BOUND ( 'NONE', #55, .T. ) ;
#66 = APPLICATION_PROTOCOL_DEFINITION ( 'draft international standard', 'automotive_design', 1998, #64 ) ;
#67 = EDGE_LOOP ( 'NONE', ( #71 ) ) ;
#68 = APPLICATION_PROTOCOL_DEFINITION ( 'draft international standard', 'automotive_design', 1998, #94 ) ;
#69 =( NAMED_UNIT ( * ) PLANE_ANGLE_UNIT ( ) SI_UNIT ( $, .RADIAN. ) );
#70 = CIRCLE ( 'NONE', #59, 25.00000000000000000 ) ;
#71 = ORIENTED_EDGE ( 'NONE', *, *, #131, .T. ) ;
#72 = EDGE_CURVE ( 'NONE', #84, #84, #193, .T. ) ;
#73 = CARTESIAN_POINT ( 'NONE',  ( 0.000000000000000000, 0.000000000000000000, -3000.000000000000000 ) ) ;
#74 = EDGE_LOOP ( 'NONE', ( #36 ) ) ;
#75 =( NAMED_UNIT ( * ) SI_UNIT ( $, .STERADIAN. ) SOLID_ANGLE_UNIT ( ) );
#76 = CARTESIAN_POINT ( 'NONE',  ( 0.000000000000000000, 0.000000000000000000, 0.000000000000000000 ) ) ;
#77 = DIRECTION ( 'NONE',  ( 1.000000000000000000, 0.000000000000000000, 0.000000000000000000 ) ) ;
#78 = DIRECTION ( 'NONE',  ( 0.000000000000000000, 0.000000000000000000, 1.000000000000000000 ) ) ;
#79 = CIRCLE ( 'NONE', #198, 24.85000000000000142 ) ;
#80 = PRESENTATION_LAYER_ASSIGNMENT (  '', '', ( #15 ) ) ;
#81 = DIRECTION ( 'NONE',  ( 0.000000000000000000, 0.000000000000000000, 1.000000000000000000 ) ) ;
#82 = CARTESIAN_POINT ( 'NONE',  ( 0.000000000000000000, 0.000000000000000000, 0.000000000000000000 ) ) ;
#83 = TOROIDAL_SURFACE ( 'NONE', #167, 24.85000000000000142, 0.1499999999999999944 ) ;
#84 = VERTEX_POINT ( 'NONE', #117 ) ;
#85 = ORIENTED_EDGE ( 'NONE', *, *, #52, .F. ) ;
#86 = CARTESIAN_POINT ( 'NONE',  ( 0.000000000000000000, 0.000000000000000000, 0.000000000000000000 ) ) ;
#87 = FACE_OUTER_BOUND ( 'NONE', #74, .T. ) ;
#88 = DIRECTION ( 'NONE',  ( 0.000000000000000000, 0.000000000000000000, 1.000000000000000000 ) ) ;
#89 = PRESENTATION_STYLE_ASSIGNMENT (( #5 ) ) ;
#90 = FACE_OUTER_BOUND ( 'NONE', #155, .T. ) ;
#91 = ADVANCED_FACE ( 'NONE', ( #189, #38 ), #57, .T. ) ;
#92 = CARTESIAN_POINT ( 'NONE',  ( 0.000000000000000000, 0.000000000000000000, -2999.849999999999909 ) ) ;
#93 = CARTESIAN_POINT ( 'NONE',  ( 0.000000000000000000, 0.000000000000000000, -0.1500000000000945022 ) ) ;
#94 = APPLICATION_CONTEXT ( 'automotive_design' ) ;
#95 =( GEOMETRIC_REPRESENTATION_CONTEXT ( 3 ) GLOBAL_UNCERTAINTY_ASSIGNED_CONTEXT ( ( #213 ) ) GLOBAL_UNIT_ASSIGNED_CONTEXT ( ( #51, #69, #25 ) ) REPRESENTATION_CONTEXT ( 'NONE', 'WORKASPACE' ) );
#96 = TOROIDAL_SURFACE ( 'NONE', #178, 24.85000000000000142, 0.1499999999999999944 ) ;
#97 = PRODUCT_DEFINITION_CONTEXT ( 'detailed design', #94, 'design' ) ;
#98 = VERTEX_POINT ( 'NONE', #34 ) ;
#99 = SURFACE_SIDE_STYLE ('',( #203 ) ) ;
#100 = DIRECTION ( 'NONE',  ( -0.000000000000000000, -0.000000000000000000, -1.000000000000000000 ) ) ;
#101 = FACE_OUTER_BOUND ( 'NONE', #170, .T. ) ;
#102 = CIRCLE ( 'NONE', #11, 24.85000000000000142 ) ;
#103 = FACE_OUTER_BOUND ( 'NONE', #202, .T. ) ;
#104 = ORIENTED_EDGE ( 'NONE', *, *, #149, .F. ) ;
#105 = MECHANICAL_DESIGN_GEOMETRIC_PRESENTATION_REPRESENTATION (  '', ( #174 ), #145 ) ;
#106 = SURFACE_STYLE_FILL_AREA ( #181 ) ;
#107 = FACE_OUTER_BOUND ( 'NONE', #67, .T. ) ;
#108 = TOROIDAL_SURFACE ( 'NONE', #162, 23.65000000000000568, 0.1499999999999999944 ) ;
#109 = FILL_AREA_STYLE_COLOUR ( '', #48 ) ;
#110 = EDGE_LOOP ( 'NONE', ( #188 ) ) ;
#111 = DIRECTION ( 'NONE',  ( -0.000000000000000000, -0.000000000000000000, -1.000000000000000000 ) ) ;
#112 = AXIS2_PLACEMENT_3D ( 'NONE', #138, #204, #40 ) ;
#113 = PRESENTATION_LAYER_ASSIGNMENT (  '', '', ( #174 ) ) ;
#114 = ADVANCED_FACE ( 'NONE', ( #90, #107 ), #28, .F. ) ;
#115 = PRODUCT_DEFINITION_FORMATION_WITH_SPECIFIED_SOURCE ( 'ANY', '', #185, .NOT_KNOWN. ) ;
#116 = PRODUCT_CONTEXT ( 'NONE', #64, 'mechanical' ) ;
#117 = CARTESIAN_POINT ( 'NONE',  ( 23.50000000000000355, 0.000000000000000000, -2999.849999999999909 ) ) ;
#118 = ORIENTED_EDGE ( 'NONE', *, *, #37, .T. ) ;
#119 =( NAMED_UNIT ( * ) SI_UNIT ( $, .STERADIAN. ) SOLID_ANGLE_UNIT ( ) );
#120 = DIRECTION ( 'NONE',  ( -0.000000000000000000, -0.000000000000000000, -1.000000000000000000 ) ) ;
#121 = ORIENTED_EDGE ( 'NONE', *, *, #132, .T. ) ;
#122 =( NAMED_UNIT ( * ) PLANE_ANGLE_UNIT ( ) SI_UNIT ( $, .RADIAN. ) );
#123 = DIRECTION ( 'NONE',  ( 0.000000000000000000, 0.000000000000000000, 1.000000000000000000 ) ) ;
#124 = CIRCLE ( 'NONE', #166, 23.65000000000000568 ) ;
#125 = PRODUCT_DEFINITION ( 'UNKNOWN', '', #115, #97 ) ;
#126 = PRODUCT_DEFINITION_SHAPE ( 'NONE', 'NONE',  #125 ) ;
#127 = SURFACE_SIDE_STYLE ('',( #106 ) ) ;
#128 = DIRECTION ( 'NONE',  ( 1.000000000000000000, 0.000000000000000000, 0.000000000000000000 ) ) ;
#129 = PRESENTATION_STYLE_ASSIGNMENT (( #210 ) ) ;
#130 = PRODUCT_RELATED_PRODUCT_CATEGORY ( 'part', '', ( #185 ) ) ;
#131 = EDGE_CURVE ( 'NONE', #33, #33, #172, .T. ) ;
#132 = EDGE_CURVE ( 'NONE', #1, #1, #79, .T. ) ;
#133 = CIRCLE ( 'NONE', #9, 25.00000000000000000 ) ;
#134 = EDGE_LOOP ( 'NONE', ( #121 ) ) ;
#135 = CLOSED_SHELL ( 'NONE', ( #16, #46, #91, #114, #187, #208, #201, #168 ) ) ;
#136 = EDGE_LOOP ( 'NONE', ( #152 ) ) ;
#137 = FILL_AREA_STYLE ('',( #160 ) ) ;
#138 = CARTESIAN_POINT ( 'NONE',  ( 0.000000000000000000, 0.000000000000000000, -3000.000000000000000 ) ) ;
#139 = ORIENTED_EDGE ( 'NONE', *, *, #72, .F. ) ;
#140 = VERTEX_POINT ( 'NONE', #151 ) ;
#141 = UNCERTAINTY_MEASURE_WITH_UNIT (LENGTH_MEASURE( 1.000000000000000082E-05 ), #175, 'distance_accuracy_value', 'NONE');
#142 = DIRECTION ( 'NONE',  ( 0.000000000000000000, 0.000000000000000000, 1.000000000000000000 ) ) ;
#143 = EDGE_CURVE ( 'NONE', #17, #17, #102, .T. ) ;
#144 = CARTESIAN_POINT ( 'NONE',  ( 0.000000000000000000, 0.000000000000000000, -0.1500000000000945022 ) ) ;
#145 =( GEOMETRIC_REPRESENTATION_CONTEXT ( 3 ) GLOBAL_UNCERTAINTY_ASSIGNED_CONTEXT ( ( #141 ) ) GLOBAL_UNIT_ASSIGNED_CONTEXT ( ( #175, #122, #119 ) ) REPRESENTATION_CONTEXT ( 'NONE', 'WORKASPACE' ) );
#146 = FACE_OUTER_BOUND ( 'NONE', #7, .T. ) ;
#147 = CARTESIAN_POINT ( 'NONE',  ( 0.000000000000000000, 0.000000000000000000, -0.1500000000000945022 ) ) ;
#148 = FACE_OUTER_BOUND ( 'NONE', #110, .T. ) ;
#149 = EDGE_CURVE ( 'NONE', #171, #171, #133, .T. ) ;
#150 = DIRECTION ( 'NONE',  ( 1.000000000000000000, 0.000000000000000000, 0.000000000000000000 ) ) ;
#151 = CARTESIAN_POINT ( 'NONE',  ( 23.65000000000000568, 0.000000000000000000, 0.000000000000000000 ) ) ;
#152 = ORIENTED_EDGE ( 'NONE', *, *, #132, .F. ) ;
#153 = CARTESIAN_POINT ( 'NONE',  ( 23.65000000000000568, 0.000000000000000000, -3000.000000000000000 ) ) ;
#154 = CIRCLE ( 'NONE', #112, 23.65000000000000568 ) ;
#155 = EDGE_LOOP ( 'NONE', ( #49 ) ) ;
#156 = COLOUR_RGB ( '',0.7529411764705882248, 0.7529411764705882248, 0.7529411764705882248 ) ;
#157 = CARTESIAN_POINT ( 'NONE',  ( 23.50000000000000355, 0.000000000000000000, -0.1500000000000945022 ) ) ;
#158 = DIRECTION ( 'NONE',  ( 0.000000000000000000, 0.000000000000000000, 1.000000000000000000 ) ) ;
#159 = ORIENTED_EDGE ( 'NONE', *, *, #37, .F. ) ;
#160 = FILL_AREA_STYLE_COLOUR ( '', #156 ) ;
#161 = DIRECTION ( 'NONE',  ( 1.000000000000000000, 0.000000000000000000, 0.000000000000000000 ) ) ;
#162 = AXIS2_PLACEMENT_3D ( 'NONE', #93, #180, #26 ) ;
#163 = CARTESIAN_POINT ( 'NONE',  ( 0.000000000000000000, 0.000000000000000000, -3000.000000000000000 ) ) ;
#164 = FACE_OUTER_BOUND ( 'NONE', #31, .T. ) ;
#165 = DIRECTION ( 'NONE',  ( 0.000000000000000000, 0.000000000000000000, 1.000000000000000000 ) ) ;
#166 = AXIS2_PLACEMENT_3D ( 'NONE', #76, #100, #8 ) ;
#167 = AXIS2_PLACEMENT_3D ( 'NONE', #63, #61, #150 ) ;
#168 = ADVANCED_FACE ( 'NONE', ( #207, #148 ), #108, .T. ) ;
#169 = CARTESIAN_POINT ( 'NONE',  ( 25.00000000000000000, 0.000000000000000000, -0.1500000000000945022 ) ) ;
#170 = EDGE_LOOP ( 'NONE', ( #53 ) ) ;
#171 = VERTEX_POINT ( 'NONE', #169 ) ;
#172 = CIRCLE ( 'NONE', #29, 23.50000000000000355 ) ;
#173 = ORIENTED_EDGE ( 'NONE', *, *, #30, .T. ) ;
#174 = STYLED_ITEM ( 'NONE', ( #89 ), #44 ) ;
#175 =( LENGTH_UNIT ( ) NAMED_UNIT ( * ) SI_UNIT ( .MILLI., .METRE. ) );
#176 = CARTESIAN_POINT ( 'NONE',  ( 0.000000000000000000, 0.000000000000000000, -2999.849999999999909 ) ) ;
#177 = ORIENTED_EDGE ( 'NONE', *, *, #143, .T. ) ;
#178 = AXIS2_PLACEMENT_3D ( 'NONE', #92, #58, #45 ) ;
#179 = DIRECTION ( 'NONE',  ( 1.000000000000000000, 0.000000000000000000, 0.000000000000000000 ) ) ;
#180 = DIRECTION ( 'NONE',  ( 0.000000000000000000, 0.000000000000000000, 1.000000000000000000 ) ) ;
#181 = FILL_AREA_STYLE ('',( #109 ) ) ;
#182 =( LENGTH_UNIT ( ) NAMED_UNIT ( * ) SI_UNIT ( .MILLI., .METRE. ) );
#183 = AXIS2_PLACEMENT_3D ( 'NONE', #86, #158, #196 ) ;
#184 = MECHANICAL_DESIGN_GEOMETRIC_PRESENTATION_REPRESENTATION (  '', ( #15 ), #3 ) ;
#185 = PRODUCT ( '2046598', '2046598', '', ( #116 ) ) ;
#186 = CARTESIAN_POINT ( 'NONE',  ( 0.000000000000000000, 0.000000000000000000, 0.000000000000000000 ) ) ;
#187 = ADVANCED_FACE ( 'NONE', ( #194, #43 ), #96, .T. ) ;
#188 = ORIENTED_EDGE ( 'NONE', *, *, #131, .F. ) ;
#189 = FACE_OUTER_BOUND ( 'NONE', #134, .T. ) ;
#190 = EDGE_LOOP ( 'NONE', ( #118 ) ) ;
#191 = VERTEX_POINT ( 'NONE', #153 ) ;
#192 = PLANE ( 'NONE',  #2 ) ;
#193 = CIRCLE ( 'NONE', #47, 23.50000000000000355 ) ;
#194 = FACE_OUTER_BOUND ( 'NONE', #22, .T. ) ;
#195 = CARTESIAN_POINT ( 'NONE',  ( 0.000000000000000000, 0.000000000000000000, -2999.849999999999909 ) ) ;
#196 = DIRECTION ( 'NONE',  ( 1.000000000000000000, 0.000000000000000000, -0.000000000000000000 ) ) ;
#197 = UNCERTAINTY_MEASURE_WITH_UNIT (LENGTH_MEASURE( 1.000000000000000082E-05 ), #182, 'distance_accuracy_value', 'NONE');
#198 = AXIS2_PLACEMENT_3D ( 'NONE', #82, #78, #77 ) ;
#199 = AXIS2_PLACEMENT_3D ( 'NONE', #195, #12, #62 ) ;
#200 = EDGE_LOOP ( 'NONE', ( #85 ) ) ;
#201 = ADVANCED_FACE ( 'NONE', ( #164, #10 ), #83, .T. ) ;
#202 = EDGE_LOOP ( 'NONE', ( #177 ) ) ;
#203 = SURFACE_STYLE_FILL_AREA ( #137 ) ;
#204 = DIRECTION ( 'NONE',  ( 0.000000000000000000, 0.000000000000000000, 1.000000000000000000 ) ) ;
#205 = CYLINDRICAL_SURFACE ( 'NONE', #41, 25.00000000000000000 ) ;
#206 = DIRECTION ( 'NONE',  ( 1.000000000000000000, 0.000000000000000000, 0.000000000000000000 ) ) ;
#207 = FACE_OUTER_BOUND ( 'NONE', #4, .T. ) ;
#208 = ADVANCED_FACE ( 'NONE', ( #65, #146 ), #42, .T. ) ;
#209 = DIRECTION ( 'NONE',  ( -0.000000000000000000, -0.000000000000000000, -1.000000000000000000 ) ) ;
#210 = SURFACE_STYLE_USAGE ( .BOTH. , #127 ) ;
#211 = CARTESIAN_POINT ( 'NONE',  ( 0.000000000000000000, 0.000000000000000000, -3000.000000000000000 ) ) ;
#212 = SHAPE_DEFINITION_REPRESENTATION ( #126, #44 ) ;
#213 = UNCERTAINTY_MEASURE_WITH_UNIT (LENGTH_MEASURE( 1.000000000000000082E-05 ), #51, 'distance_accuracy_value', 'NONE');
#214 = MANIFOLD_SOLID_BREP ( 'Verrundung1', #135 ) ;
ENDSEC;
END-ISO-10303-21;
