ISO-10303-21;
HEADER;
FILE_DESCRIPTION (( 'STEP AP214' ),
    '1' );
FILE_NAME ('2046775.stp',
    '2024-05-02T14:54:51',
    ( '' ),
    ( '' ),
    'SwSTEP 2.0',
    'SolidWorks 2022',
    '' );
FILE_SCHEMA (( 'AUTOMOTIVE_DESIGN' ));
ENDSEC;

DATA;
#1 = ADVANCED_FACE ( 'NONE', ( #22, #310 ), #80, .F. ) ;
#2 = DIRECTION ( 'NONE',  ( 0.000000000000000000, 0.000000000000000000, 1.000000000000000000 ) ) ;
#3 = EDGE_LOOP ( 'NONE', ( #156 ) ) ;
#4 = CARTESIAN_POINT ( 'NONE',  ( -50.00000000000000000, 0.000000000000000000, 25.10000000000000142 ) ) ;
#5 = EDGE_LOOP ( 'NONE', ( #152 ) ) ;
#6 = UNCERTAINTY_MEASURE_WITH_UNIT (LENGTH_MEASURE( 1.000000000000000082E-05 ), #132, 'distance_accuracy_value', 'NONE');
#7 = DIRECTION ( 'NONE',  ( 0.000000000000000000, 0.000000000000000000, -1.000000000000000000 ) ) ;
#8 =( NAMED_UNIT ( * ) SI_UNIT ( $, .STERADIAN. ) SOLID_ANGLE_UNIT ( ) );
#9 = VERTEX_POINT ( 'NONE', #37 ) ;
#10 = AXIS2_PLACEMENT_3D ( 'NONE', #175, #213, #239 ) ;
#11 = TOROIDAL_SURFACE ( 'NONE', #241, 26.75000000000000355, 1.000000000000000000 ) ;
#12 = CARTESIAN_POINT ( 'NONE',  ( 50.00000000000000000, 0.000000000000000000, 0.000000000000000000 ) ) ;
#13 = DIRECTION ( 'NONE',  ( 0.000000000000000000, 0.000000000000000000, 1.000000000000000000 ) ) ;
#14 = CYLINDRICAL_SURFACE ( 'NONE', #268, 26.34999999999999787 ) ;
#15 = DIRECTION ( 'NONE',  ( -1.000000000000000000, -0.000000000000000000, -0.000000000000000000 ) ) ;
#16 = PRESENTATION_LAYER_ASSIGNMENT (  '', '', ( #38 ) ) ;
#17 = FACE_BOUND ( 'NONE', #48, .T. ) ;
#18 = PRODUCT_CONTEXT ( 'NONE', #102, 'mechanical' ) ;
#19 = CARTESIAN_POINT ( 'NONE',  ( -50.00000000000000000, 0.000000000000000000, 0.000000000000000000 ) ) ;
#20 = PRODUCT_DEFINITION ( 'UNKNOWN', '', #84, #237 ) ;
#21 = PRESENTATION_LAYER_ASSIGNMENT (  '', '', ( #305 ) ) ;
#22 = FACE_OUTER_BOUND ( 'NONE', #101, .T. ) ;
#23 =( GEOMETRIC_REPRESENTATION_CONTEXT ( 3 ) GLOBAL_UNCERTAINTY_ASSIGNED_CONTEXT ( ( #235 ) ) GLOBAL_UNIT_ASSIGNED_CONTEXT ( ( #67, #299, #218 ) ) REPRESENTATION_CONTEXT ( 'NONE', 'WORKASPACE' ) );
#24 = COLOUR_RGB ( '',1.000000000000000000, 0.7607843137254901578, 0.6549019607843137303 ) ;
#25 = SURFACE_STYLE_USAGE ( .BOTH. , #222 ) ;
#26 = EDGE_LOOP ( 'NONE', ( #248 ) ) ;
#27 = DIRECTION ( 'NONE',  ( -1.000000000000000000, 0.000000000000000000, -0.000000000000000000 ) ) ;
#28 = EDGE_LOOP ( 'NONE', ( #69 ) ) ;
#29 = FILL_AREA_STYLE_COLOUR ( '', #160 ) ;
#30 = UNCERTAINTY_MEASURE_WITH_UNIT (LENGTH_MEASURE( 1.000000000000000082E-05 ), #98, 'distance_accuracy_value', 'NONE');
#31 = AXIS2_PLACEMENT_3D ( 'NONE', #287, #137, #167 ) ;
#32 = COLOUR_RGB ( '',1.000000000000000000, 0.7607843137254901578, 0.6549019607843137303 ) ;
#33 = SURFACE_STYLE_USAGE ( .BOTH. , #259 ) ;
#34 = PLANE ( 'NONE',  #57 ) ;
#35 = CARTESIAN_POINT ( 'NONE',  ( -50.00000000000000000, 0.000000000000000000, 26.34999999999999432 ) ) ;
#36 = PRESENTATION_STYLE_ASSIGNMENT (( #192 ) ) ;
#37 = CARTESIAN_POINT ( 'NONE',  ( -0.9165151389911689872, 0.000000000000000000, 26.35000000000000142 ) ) ;
#38 = STYLED_ITEM ( 'NONE', ( #161 ), #246 ) ;
#39 = SURFACE_STYLE_FILL_AREA ( #58 ) ;
#40 = PRESENTATION_LAYER_ASSIGNMENT (  '', '', ( #215 ) ) ;
#41 = FILL_AREA_STYLE ('',( #91 ) ) ;
#42 = AXIS2_PLACEMENT_3D ( 'NONE', #288, #264, #13 ) ;
#43 = SURFACE_STYLE_USAGE ( .BOTH. , #267 ) ;
#44 = FACE_OUTER_BOUND ( 'NONE', #3, .T. ) ;
#45 =( NAMED_UNIT ( * ) PLANE_ANGLE_UNIT ( ) SI_UNIT ( $, .RADIAN. ) );
#46 =( NAMED_UNIT ( * ) PLANE_ANGLE_UNIT ( ) SI_UNIT ( $, .RADIAN. ) );
#47 = DIRECTION ( 'NONE',  ( 0.000000000000000000, 0.000000000000000000, 1.000000000000000000 ) ) ;
#48 = EDGE_LOOP ( 'NONE', ( #113 ) ) ;
#49 = AXIS2_PLACEMENT_3D ( 'NONE', #141, #269, #68 ) ;
#50 = ORIENTED_EDGE ( 'NONE', *, *, #54, .T. ) ;
#51 =( NAMED_UNIT ( * ) SI_UNIT ( $, .STERADIAN. ) SOLID_ANGLE_UNIT ( ) );
#52 = DIRECTION ( 'NONE',  ( 0.000000000000000000, 0.000000000000000000, 1.000000000000000000 ) ) ;
#53 = DIRECTION ( 'NONE',  ( -1.000000000000000000, -0.000000000000000000, -0.000000000000000000 ) ) ;
#54 = EDGE_CURVE ( 'NONE', #86, #86, #154, .T. ) ;
#55 =( NAMED_UNIT ( * ) PLANE_ANGLE_UNIT ( ) SI_UNIT ( $, .RADIAN. ) );
#56 = EDGE_LOOP ( 'NONE', ( #135 ) ) ;
#57 = AXIS2_PLACEMENT_3D ( 'NONE', #64, #236, #7 ) ;
#58 = FILL_AREA_STYLE ('',( #146 ) ) ;
#59 = VERTEX_POINT ( 'NONE', #169 ) ;
#60 = CARTESIAN_POINT ( 'NONE',  ( -17.47792894757627025, 0.000000000000000000, 0.000000000000000000 ) ) ;
#61 = ADVANCED_FACE ( 'NONE', ( #243, #211 ), #14, .T. ) ;
#62 = FILL_AREA_STYLE ('',( #82 ) ) ;
#63 = AXIS2_PLACEMENT_3D ( 'NONE', #295, #92, #329 ) ;
#64 = CARTESIAN_POINT ( 'NONE',  ( -50.00000000000000000, 26.34999999999999432, 0.000000000000000000 ) ) ;
#65 = VERTEX_POINT ( 'NONE', #4 ) ;
#66 = EDGE_CURVE ( 'NONE', #65, #65, #173, .T. ) ;
#67 =( LENGTH_UNIT ( ) NAMED_UNIT ( * ) SI_UNIT ( .MILLI., .METRE. ) );
#68 = DIRECTION ( 'NONE',  ( 0.000000000000000000, 0.000000000000000000, 1.000000000000000000 ) ) ;
#69 = ORIENTED_EDGE ( 'NONE', *, *, #144, .T. ) ;
#70 =( NAMED_UNIT ( * ) SI_UNIT ( $, .STERADIAN. ) SOLID_ANGLE_UNIT ( ) );
#71 = PRESENTATION_STYLE_ASSIGNMENT (( #302 ) ) ;
#72 = DIRECTION ( 'NONE',  ( -1.000000000000000000, -0.000000000000000000, -0.000000000000000000 ) ) ;
#73 = PRODUCT ( '2046775', '2046775', '', ( #18 ) ) ;
#74 =( NAMED_UNIT ( * ) PLANE_ANGLE_UNIT ( ) SI_UNIT ( $, .RADIAN. ) );
#75 = DIRECTION ( 'NONE',  ( -1.000000000000000000, -0.000000000000000000, -0.000000000000000000 ) ) ;
#76 = COLOUR_RGB ( '',1.000000000000000000, 0.7607843137254901578, 0.6549019607843137303 ) ;
#77 = ADVANCED_FACE ( 'NONE', ( #121, #317 ), #117, .F. ) ;
#78 = MECHANICAL_DESIGN_GEOMETRIC_PRESENTATION_REPRESENTATION (  '', ( #265 ), #307 ) ;
#79 = CARTESIAN_POINT ( 'NONE',  ( -17.47792894757627025, 0.000000000000000000, 0.000000000000000000 ) ) ;
#80 = CYLINDRICAL_SURFACE ( 'NONE', #297, 25.10000000000000497 ) ;
#81 =( LENGTH_UNIT ( ) NAMED_UNIT ( * ) SI_UNIT ( .MILLI., .METRE. ) );
#82 = FILL_AREA_STYLE_COLOUR ( '', #220 ) ;
#83 = UNCERTAINTY_MEASURE_WITH_UNIT (LENGTH_MEASURE( 1.000000000000000082E-05 ), #282, 'distance_accuracy_value', 'NONE');
#84 = PRODUCT_DEFINITION_FORMATION_WITH_SPECIFIED_SOURCE ( 'ANY', '', #73, .NOT_KNOWN. ) ;
#85 = STYLED_ITEM ( 'NONE', ( #138 ), #1 ) ;
#86 = VERTEX_POINT ( 'NONE', #285 ) ;
#87 =( GEOMETRIC_REPRESENTATION_CONTEXT ( 3 ) GLOBAL_UNCERTAINTY_ASSIGNED_CONTEXT ( ( #139 ) ) GLOBAL_UNIT_ASSIGNED_CONTEXT ( ( #89, #292, #8 ) ) REPRESENTATION_CONTEXT ( 'NONE', 'WORKASPACE' ) );
#88 = VERTEX_POINT ( 'NONE', #242 ) ;
#89 =( LENGTH_UNIT ( ) NAMED_UNIT ( * ) SI_UNIT ( .MILLI., .METRE. ) );
#90 = SURFACE_STYLE_FILL_AREA ( #62 ) ;
#91 = FILL_AREA_STYLE_COLOUR ( '', #184 ) ;
#92 = DIRECTION ( 'NONE',  ( 0.000000000000000000, 0.000000000000000000, 1.000000000000000000 ) ) ;
#93 = SHAPE_DEFINITION_REPRESENTATION ( #200, #165 ) ;
#94 = SURFACE_STYLE_FILL_AREA ( #41 ) ;
#95 = STYLED_ITEM ( 'NONE', ( #293 ), #165 ) ;
#96 = MANIFOLD_SOLID_BREP ( 'Rotation-VA', #147 ) ;
#97 = DIRECTION ( 'NONE',  ( 0.000000000000000000, 0.000000000000000000, 1.000000000000000000 ) ) ;
#98 =( LENGTH_UNIT ( ) NAMED_UNIT ( * ) SI_UNIT ( .MILLI., .METRE. ) );
#99 = APPLICATION_PROTOCOL_DEFINITION ( 'draft international standard', 'automotive_design', 1998, #158 ) ;
#100 = PLANE ( 'NONE',  #136 ) ;
#101 = EDGE_LOOP ( 'NONE', ( #185 ) ) ;
#102 = APPLICATION_CONTEXT ( 'automotive_design' ) ;
#103 = CARTESIAN_POINT ( 'NONE',  ( 0.000000000000000000, 0.000000000000000000, 0.000000000000000000 ) ) ;
#104 = COLOUR_RGB ( '',0.7921568627450980005, 0.8196078431372548767, 0.9333333333333333481 ) ;
#105 = EDGE_LOOP ( 'NONE', ( #127 ) ) ;
#106 = FACE_OUTER_BOUND ( 'NONE', #178, .T. ) ;
#107 = CARTESIAN_POINT ( 'NONE',  ( 1.529705854077835436, 0.000000000000000000, 0.000000000000000000 ) ) ;
#108 =( NAMED_UNIT ( * ) SI_UNIT ( $, .STERADIAN. ) SOLID_ANGLE_UNIT ( ) );
#109 = CIRCLE ( 'NONE', #240, 26.34999999999999432 ) ;
#110 = CIRCLE ( 'NONE', #298, 25.10000000000000497 ) ;
#111 = TOROIDAL_SURFACE ( 'NONE', #221, 26.75000000000000355, 2.250000000000000444 ) ;
#112 =( NAMED_UNIT ( * ) SI_UNIT ( $, .STERADIAN. ) SOLID_ANGLE_UNIT ( ) );
#113 = ORIENTED_EDGE ( 'NONE', *, *, #276, .T. ) ;
#114 = UNCERTAINTY_MEASURE_WITH_UNIT (LENGTH_MEASURE( 1.000000000000000082E-05 ), #249, 'distance_accuracy_value', 'NONE');
#115 = VERTEX_POINT ( 'NONE', #208 ) ;
#116 = VERTEX_POINT ( 'NONE', #35 ) ;
#117 = CYLINDRICAL_SURFACE ( 'NONE', #49, 25.10000000000000497 ) ;
#118 = PRESENTATION_LAYER_ASSIGNMENT (  '', '', ( #205 ) ) ;
#119 =( GEOMETRIC_REPRESENTATION_CONTEXT ( 3 ) GLOBAL_UNCERTAINTY_ASSIGNED_CONTEXT ( ( #30 ) ) GLOBAL_UNIT_ASSIGNED_CONTEXT ( ( #98, #194, #286 ) ) REPRESENTATION_CONTEXT ( 'NONE', 'WORKASPACE' ) );
#120 = CARTESIAN_POINT ( 'NONE',  ( 50.00000000000000000, 0.000000000000000000, 26.34999999999999432 ) ) ;
#121 = FACE_OUTER_BOUND ( 'NONE', #163, .T. ) ;
#122 = SURFACE_STYLE_USAGE ( .BOTH. , #172 ) ;
#123 = CIRCLE ( 'NONE', #31, 25.10000000000000497 ) ;
#124 = SURFACE_SIDE_STYLE ('',( #39 ) ) ;
#125 = MECHANICAL_DESIGN_GEOMETRIC_PRESENTATION_REPRESENTATION (  '', ( #38 ), #148 ) ;
#126 = FILL_AREA_STYLE ('',( #199 ) ) ;
#127 = ORIENTED_EDGE ( 'NONE', *, *, #66, .T. ) ;
#128 = ADVANCED_FACE ( 'NONE', ( #44, #17 ), #100, .F. ) ;
#129 = EDGE_LOOP ( 'NONE', ( #226 ) ) ;
#130 =( GEOMETRIC_REPRESENTATION_CONTEXT ( 3 ) GLOBAL_UNCERTAINTY_ASSIGNED_CONTEXT ( ( #114 ) ) GLOBAL_UNIT_ASSIGNED_CONTEXT ( ( #249, #46, #70 ) ) REPRESENTATION_CONTEXT ( 'NONE', 'WORKASPACE' ) );
#131 = PRESENTATION_LAYER_ASSIGNMENT (  '', '', ( #271 ) ) ;
#132 =( LENGTH_UNIT ( ) NAMED_UNIT ( * ) SI_UNIT ( .MILLI., .METRE. ) );
#133 = DIRECTION ( 'NONE',  ( 0.000000000000000000, 0.000000000000000000, 1.000000000000000000 ) ) ;
#134 = SURFACE_STYLE_USAGE ( .BOTH. , #159 ) ;
#135 = ORIENTED_EDGE ( 'NONE', *, *, #179, .F. ) ;
#136 = AXIS2_PLACEMENT_3D ( 'NONE', #151, #27, #296 ) ;
#137 = DIRECTION ( 'NONE',  ( -1.000000000000000000, -0.000000000000000000, -0.000000000000000000 ) ) ;
#138 = PRESENTATION_STYLE_ASSIGNMENT (( #33 ) ) ;
#139 = UNCERTAINTY_MEASURE_WITH_UNIT (LENGTH_MEASURE( 1.000000000000000082E-05 ), #89, 'distance_accuracy_value', 'NONE');
#140 = FACE_OUTER_BOUND ( 'NONE', #28, .T. ) ;
#141 = CARTESIAN_POINT ( 'NONE',  ( -17.47792894757627025, 0.000000000000000000, 0.000000000000000000 ) ) ;
#142 = COLOUR_RGB ( '',1.000000000000000000, 0.7607843137254901578, 0.6549019607843137303 ) ;
#143 =( GEOMETRIC_REPRESENTATION_CONTEXT ( 3 ) GLOBAL_UNCERTAINTY_ASSIGNED_CONTEXT ( ( #188 ) ) GLOBAL_UNIT_ASSIGNED_CONTEXT ( ( #252, #45, #294 ) ) REPRESENTATION_CONTEXT ( 'NONE', 'WORKASPACE' ) );
#144 = EDGE_CURVE ( 'NONE', #116, #116, #196, .T. ) ;
#145 = APPLICATION_PROTOCOL_DEFINITION ( 'draft international standard', 'automotive_design', 1998, #102 ) ;
#146 = FILL_AREA_STYLE_COLOUR ( '', #219 ) ;
#147 = CLOSED_SHELL ( 'NONE', ( #246, #61, #301, #77, #257, #1, #128, #186 ) ) ;
#148 =( GEOMETRIC_REPRESENTATION_CONTEXT ( 3 ) GLOBAL_UNCERTAINTY_ASSIGNED_CONTEXT ( ( #6 ) ) GLOBAL_UNIT_ASSIGNED_CONTEXT ( ( #132, #334, #108 ) ) REPRESENTATION_CONTEXT ( 'NONE', 'WORKASPACE' ) );
#149 = FILL_AREA_STYLE ('',( #325 ) ) ;
#150 = SURFACE_STYLE_FILL_AREA ( #217 ) ;
#151 = CARTESIAN_POINT ( 'NONE',  ( 50.00000000000000000, 26.34999999999999432, 0.000000000000000000 ) ) ;
#152 = ORIENTED_EDGE ( 'NONE', *, *, #231, .T. ) ;
#153 = FACE_OUTER_BOUND ( 'NONE', #331, .T. ) ;
#154 = CIRCLE ( 'NONE', #10, 26.35000000000000142 ) ;
#155 =( GEOMETRIC_REPRESENTATION_CONTEXT ( 3 ) GLOBAL_UNCERTAINTY_ASSIGNED_CONTEXT ( ( #260 ) ) GLOBAL_UNIT_ASSIGNED_CONTEXT ( ( #320, #313, #209 ) ) REPRESENTATION_CONTEXT ( 'NONE', 'WORKASPACE' ) );
#156 = ORIENTED_EDGE ( 'NONE', *, *, #324, .F. ) ;
#157 = DIRECTION ( 'NONE',  ( 0.000000000000000000, 0.000000000000000000, 1.000000000000000000 ) ) ;
#158 = APPLICATION_CONTEXT ( 'automotive_design' ) ;
#159 = SURFACE_SIDE_STYLE ('',( #183 ) ) ;
#160 = COLOUR_RGB ( '',1.000000000000000000, 0.7607843137254901578, 0.6549019607843137303 ) ;
#161 = PRESENTATION_STYLE_ASSIGNMENT (( #228 ) ) ;
#162 = DIRECTION ( 'NONE',  ( 0.000000000000000000, 0.000000000000000000, 1.000000000000000000 ) ) ;
#163 = EDGE_LOOP ( 'NONE', ( #225 ) ) ;
#164 = UNCERTAINTY_MEASURE_WITH_UNIT (LENGTH_MEASURE( 1.000000000000000082E-05 ), #81, 'distance_accuracy_value', 'NONE');
#165 = ADVANCED_BREP_SHAPE_REPRESENTATION ( '2046775', ( #96, #63 ), #304 ) ;
#166 =( GEOMETRIC_REPRESENTATION_CONTEXT ( 3 ) GLOBAL_UNCERTAINTY_ASSIGNED_CONTEXT ( ( #311 ) ) GLOBAL_UNIT_ASSIGNED_CONTEXT ( ( #322, #74, #112 ) ) REPRESENTATION_CONTEXT ( 'NONE', 'WORKASPACE' ) );
#167 = DIRECTION ( 'NONE',  ( 0.000000000000000000, 0.000000000000000000, 1.000000000000000000 ) ) ;
#168 = PRESENTATION_STYLE_ASSIGNMENT (( #122 ) ) ;
#169 = CARTESIAN_POINT ( 'NONE',  ( -1.529705854077838989, 0.000000000000000000, 25.10000000000000497 ) ) ;
#170 = CARTESIAN_POINT ( 'NONE',  ( -17.47792894757627025, 0.000000000000000000, 0.000000000000000000 ) ) ;
#171 =( NAMED_UNIT ( * ) PLANE_ANGLE_UNIT ( ) SI_UNIT ( $, .RADIAN. ) );
#172 = SURFACE_SIDE_STYLE ('',( #90 ) ) ;
#173 = CIRCLE ( 'NONE', #42, 25.10000000000000142 ) ;
#174 = CIRCLE ( 'NONE', #266, 25.10000000000000142 ) ;
#175 = CARTESIAN_POINT ( 'NONE',  ( 0.9165151389911689872, 0.000000000000000000, 0.000000000000000000 ) ) ;
#176 = PRESENTATION_STYLE_ASSIGNMENT (( #191 ) ) ;
#177 = PRESENTATION_STYLE_ASSIGNMENT (( #25 ) ) ;
#178 = EDGE_LOOP ( 'NONE', ( #50 ) ) ;
#179 = EDGE_CURVE ( 'NONE', #9, #9, #289, .T. ) ;
#180 = EDGE_LOOP ( 'NONE', ( #251 ) ) ;
#181 = MECHANICAL_DESIGN_GEOMETRIC_PRESENTATION_REPRESENTATION (  '', ( #85 ), #119 ) ;
#182 = MECHANICAL_DESIGN_GEOMETRIC_PRESENTATION_REPRESENTATION (  '', ( #215 ), #166 ) ;
#183 = SURFACE_STYLE_FILL_AREA ( #206 ) ;
#184 = COLOUR_RGB ( '',0.7921568627450980005, 0.8196078431372548767, 0.9333333333333333481 ) ;
#185 = ORIENTED_EDGE ( 'NONE', *, *, #276, .F. ) ;
#186 = ADVANCED_FACE ( 'NONE', ( #272, #153 ), #250, .T. ) ;
#187 = FILL_AREA_STYLE_COLOUR ( '', #142 ) ;
#188 = UNCERTAINTY_MEASURE_WITH_UNIT (LENGTH_MEASURE( 1.000000000000000082E-05 ), #252, 'distance_accuracy_value', 'NONE');
#189 = SURFACE_STYLE_FILL_AREA ( #316 ) ;
#190 = PRESENTATION_LAYER_ASSIGNMENT (  '', '', ( #234 ) ) ;
#191 = SURFACE_STYLE_USAGE ( .BOTH. , #238 ) ;
#192 = SURFACE_STYLE_USAGE ( .BOTH. , #124 ) ;
#193 = VERTEX_POINT ( 'NONE', #120 ) ;
#194 =( NAMED_UNIT ( * ) PLANE_ANGLE_UNIT ( ) SI_UNIT ( $, .RADIAN. ) );
#195 = MECHANICAL_DESIGN_GEOMETRIC_PRESENTATION_REPRESENTATION (  '', ( #205 ), #214 ) ;
#196 = CIRCLE ( 'NONE', #197, 26.34999999999999432 ) ;
#197 = AXIS2_PLACEMENT_3D ( 'NONE', #19, #328, #97 ) ;
#198 = SURFACE_STYLE_FILL_AREA ( #149 ) ;
#199 = FILL_AREA_STYLE_COLOUR ( '', #327 ) ;
#200 = PRODUCT_DEFINITION_SHAPE ( 'NONE', 'NONE',  #20 ) ;
#201 = AXIS2_PLACEMENT_3D ( 'NONE', #79, #72, #157 ) ;
#202 = CARTESIAN_POINT ( 'NONE',  ( 0.000000000000000000, 0.000000000000000000, 0.000000000000000000 ) ) ;
#203 = FACE_OUTER_BOUND ( 'NONE', #129, .T. ) ;
#204 = MECHANICAL_DESIGN_GEOMETRIC_PRESENTATION_REPRESENTATION (  '', ( #305 ), #155 ) ;
#205 = STYLED_ITEM ( 'NONE', ( #176 ), #301 ) ;
#206 = FILL_AREA_STYLE ('',( #256 ) ) ;
#207 = ORIENTED_EDGE ( 'NONE', *, *, #179, .T. ) ;
#208 = CARTESIAN_POINT ( 'NONE',  ( 1.529705854077835436, 0.000000000000000000, 25.10000000000000497 ) ) ;
#209 =( NAMED_UNIT ( * ) SI_UNIT ( $, .STERADIAN. ) SOLID_ANGLE_UNIT ( ) );
#210 = MECHANICAL_DESIGN_GEOMETRIC_PRESENTATION_REPRESENTATION (  '', ( #229 ), #87 ) ;
#211 = FACE_OUTER_BOUND ( 'NONE', #258, .T. ) ;
#212 =( NAMED_UNIT ( * ) SI_UNIT ( $, .STERADIAN. ) SOLID_ANGLE_UNIT ( ) );
#213 = DIRECTION ( 'NONE',  ( -1.000000000000000000, -0.000000000000000000, -0.000000000000000000 ) ) ;
#214 =( GEOMETRIC_REPRESENTATION_CONTEXT ( 3 ) GLOBAL_UNCERTAINTY_ASSIGNED_CONTEXT ( ( #83 ) ) GLOBAL_UNIT_ASSIGNED_CONTEXT ( ( #282, #261, #291 ) ) REPRESENTATION_CONTEXT ( 'NONE', 'WORKASPACE' ) );
#215 = STYLED_ITEM ( 'NONE', ( #71 ), #186 ) ;
#216 = PRESENTATION_STYLE_ASSIGNMENT (( #247 ) ) ;
#217 = FILL_AREA_STYLE ('',( #319 ) ) ;
#218 =( NAMED_UNIT ( * ) SI_UNIT ( $, .STERADIAN. ) SOLID_ANGLE_UNIT ( ) );
#219 = COLOUR_RGB ( '',1.000000000000000000, 0.7607843137254901578, 0.6549019607843137303 ) ;
#220 = COLOUR_RGB ( '',1.000000000000000000, 0.7607843137254901578, 0.6549019607843137303 ) ;
#221 = AXIS2_PLACEMENT_3D ( 'NONE', #202, #53, #162 ) ;
#222 = SURFACE_SIDE_STYLE ('',( #198 ) ) ;
#223 = SURFACE_STYLE_FILL_AREA ( #281 ) ;
#224 = SURFACE_STYLE_FILL_AREA ( #126 ) ;
#225 = ORIENTED_EDGE ( 'NONE', *, *, #318, .F. ) ;
#226 = ORIENTED_EDGE ( 'NONE', *, *, #231, .F. ) ;
#227 = PRODUCT_RELATED_PRODUCT_CATEGORY ( 'part', '', ( #73 ) ) ;
#228 = SURFACE_STYLE_USAGE ( .BOTH. , #230 ) ;
#229 = STYLED_ITEM ( 'NONE', ( #168 ), #77 ) ;
#230 = SURFACE_SIDE_STYLE ('',( #253 ) ) ;
#231 = EDGE_CURVE ( 'NONE', #115, #115, #110, .T. ) ;
#232 = DIRECTION ( 'NONE',  ( -1.000000000000000000, -0.000000000000000000, -0.000000000000000000 ) ) ;
#233 = EDGE_LOOP ( 'NONE', ( #333 ) ) ;
#234 = STYLED_ITEM ( 'NONE', ( #177 ), #128 ) ;
#235 = UNCERTAINTY_MEASURE_WITH_UNIT (LENGTH_MEASURE( 1.000000000000000082E-05 ), #67, 'distance_accuracy_value', 'NONE');
#236 = DIRECTION ( 'NONE',  ( 1.000000000000000000, 0.000000000000000000, 0.000000000000000000 ) ) ;
#237 = PRODUCT_DEFINITION_CONTEXT ( 'detailed design', #158, 'design' ) ;
#238 = SURFACE_SIDE_STYLE ('',( #189 ) ) ;
#239 = DIRECTION ( 'NONE',  ( 0.000000000000000000, 0.000000000000000000, 1.000000000000000000 ) ) ;
#240 = AXIS2_PLACEMENT_3D ( 'NONE', #12, #312, #244 ) ;
#241 = AXIS2_PLACEMENT_3D ( 'NONE', #103, #303, #133 ) ;
#242 = CARTESIAN_POINT ( 'NONE',  ( 50.00000000000000000, 0.000000000000000000, 25.10000000000000142 ) ) ;
#243 = FACE_OUTER_BOUND ( 'NONE', #26, .T. ) ;
#244 = DIRECTION ( 'NONE',  ( 0.000000000000000000, 0.000000000000000000, 1.000000000000000000 ) ) ;
#245 = DIRECTION ( 'NONE',  ( 0.000000000000000000, 0.000000000000000000, 1.000000000000000000 ) ) ;
#246 = ADVANCED_FACE ( 'NONE', ( #274, #106 ), #11, .F. ) ;
#247 = SURFACE_STYLE_USAGE ( .BOTH. , #323 ) ;
#248 = ORIENTED_EDGE ( 'NONE', *, *, #144, .F. ) ;
#249 =( LENGTH_UNIT ( ) NAMED_UNIT ( * ) SI_UNIT ( .MILLI., .METRE. ) );
#250 = CYLINDRICAL_SURFACE ( 'NONE', #201, 26.34999999999999787 ) ;
#251 = ORIENTED_EDGE ( 'NONE', *, *, #54, .F. ) ;
#252 =( LENGTH_UNIT ( ) NAMED_UNIT ( * ) SI_UNIT ( .MILLI., .METRE. ) );
#253 = SURFACE_STYLE_FILL_AREA ( #332 ) ;
#254 = PRESENTATION_LAYER_ASSIGNMENT (  '', '', ( #95 ) ) ;
#255 = MECHANICAL_DESIGN_GEOMETRIC_PRESENTATION_REPRESENTATION (  '', ( #271 ), #23 ) ;
#256 = FILL_AREA_STYLE_COLOUR ( '', #76 ) ;
#257 = ADVANCED_FACE ( 'NONE', ( #203, #278 ), #111, .T. ) ;
#258 = EDGE_LOOP ( 'NONE', ( #207 ) ) ;
#259 = SURFACE_SIDE_STYLE ('',( #223 ) ) ;
#260 = UNCERTAINTY_MEASURE_WITH_UNIT (LENGTH_MEASURE( 1.000000000000000082E-05 ), #320, 'distance_accuracy_value', 'NONE');
#261 =( NAMED_UNIT ( * ) PLANE_ANGLE_UNIT ( ) SI_UNIT ( $, .RADIAN. ) );
#262 = FACE_BOUND ( 'NONE', #233, .T. ) ;
#263 = DIRECTION ( 'NONE',  ( -1.000000000000000000, -0.000000000000000000, -0.000000000000000000 ) ) ;
#264 = DIRECTION ( 'NONE',  ( -1.000000000000000000, -0.000000000000000000, -0.000000000000000000 ) ) ;
#265 = STYLED_ITEM ( 'NONE', ( #275 ), #257 ) ;
#266 = AXIS2_PLACEMENT_3D ( 'NONE', #279, #232, #2 ) ;
#267 = SURFACE_SIDE_STYLE ('',( #150 ) ) ;
#268 = AXIS2_PLACEMENT_3D ( 'NONE', #170, #263, #245 ) ;
#269 = DIRECTION ( 'NONE',  ( -1.000000000000000000, -0.000000000000000000, -0.000000000000000000 ) ) ;
#270 = DIRECTION ( 'NONE',  ( -1.000000000000000000, -0.000000000000000000, -0.000000000000000000 ) ) ;
#271 = STYLED_ITEM ( 'NONE', ( #216 ), #96 ) ;
#272 = FACE_OUTER_BOUND ( 'NONE', #180, .T. ) ;
#273 = EDGE_LOOP ( 'NONE', ( #308 ) ) ;
#274 = FACE_OUTER_BOUND ( 'NONE', #56, .T. ) ;
#275 = PRESENTATION_STYLE_ASSIGNMENT (( #134 ) ) ;
#276 = EDGE_CURVE ( 'NONE', #88, #88, #174, .T. ) ;
#277 = MECHANICAL_DESIGN_GEOMETRIC_PRESENTATION_REPRESENTATION (  '', ( #95 ), #130 ) ;
#278 = FACE_OUTER_BOUND ( 'NONE', #273, .T. ) ;
#279 = CARTESIAN_POINT ( 'NONE',  ( 50.00000000000000000, 0.000000000000000000, 0.000000000000000000 ) ) ;
#280 = ORIENTED_EDGE ( 'NONE', *, *, #324, .T. ) ;
#281 = FILL_AREA_STYLE ('',( #187 ) ) ;
#282 =( LENGTH_UNIT ( ) NAMED_UNIT ( * ) SI_UNIT ( .MILLI., .METRE. ) );
#283 = DIRECTION ( 'NONE',  ( 0.000000000000000000, 0.000000000000000000, 1.000000000000000000 ) ) ;
#284 = UNCERTAINTY_MEASURE_WITH_UNIT (LENGTH_MEASURE( 1.000000000000000082E-05 ), #309, 'distance_accuracy_value', 'NONE');
#285 = CARTESIAN_POINT ( 'NONE',  ( 0.9165151389911689872, 0.000000000000000000, 26.35000000000000142 ) ) ;
#286 =( NAMED_UNIT ( * ) SI_UNIT ( $, .STERADIAN. ) SOLID_ANGLE_UNIT ( ) );
#287 = CARTESIAN_POINT ( 'NONE',  ( -1.529705854077838989, 0.000000000000000000, 0.000000000000000000 ) ) ;
#288 = CARTESIAN_POINT ( 'NONE',  ( -50.00000000000000000, 0.000000000000000000, 0.000000000000000000 ) ) ;
#289 = CIRCLE ( 'NONE', #321, 26.35000000000000142 ) ;
#290 = PRESENTATION_LAYER_ASSIGNMENT (  '', '', ( #265 ) ) ;
#291 =( NAMED_UNIT ( * ) SI_UNIT ( $, .STERADIAN. ) SOLID_ANGLE_UNIT ( ) );
#292 =( NAMED_UNIT ( * ) PLANE_ANGLE_UNIT ( ) SI_UNIT ( $, .RADIAN. ) );
#293 = PRESENTATION_STYLE_ASSIGNMENT (( #43 ) ) ;
#294 =( NAMED_UNIT ( * ) SI_UNIT ( $, .STERADIAN. ) SOLID_ANGLE_UNIT ( ) );
#295 = CARTESIAN_POINT ( 'NONE',  ( 0.000000000000000000, 0.000000000000000000, 0.000000000000000000 ) ) ;
#296 = DIRECTION ( 'NONE',  ( -0.000000000000000000, 0.000000000000000000, 1.000000000000000000 ) ) ;
#297 = AXIS2_PLACEMENT_3D ( 'NONE', #60, #15, #283 ) ;
#298 = AXIS2_PLACEMENT_3D ( 'NONE', #107, #75, #52 ) ;
#299 =( NAMED_UNIT ( * ) PLANE_ANGLE_UNIT ( ) SI_UNIT ( $, .RADIAN. ) );
#300 = CARTESIAN_POINT ( 'NONE',  ( -0.9165151389911689872, 0.000000000000000000, 0.000000000000000000 ) ) ;
#301 = ADVANCED_FACE ( 'NONE', ( #262, #140 ), #34, .F. ) ;
#302 = SURFACE_STYLE_USAGE ( .BOTH. , #330 ) ;
#303 = DIRECTION ( 'NONE',  ( -1.000000000000000000, -0.000000000000000000, -0.000000000000000000 ) ) ;
#304 =( GEOMETRIC_REPRESENTATION_CONTEXT ( 3 ) GLOBAL_UNCERTAINTY_ASSIGNED_CONTEXT ( ( #164 ) ) GLOBAL_UNIT_ASSIGNED_CONTEXT ( ( #81, #171, #212 ) ) REPRESENTATION_CONTEXT ( 'NONE', 'WORKASPACE' ) );
#305 = STYLED_ITEM ( 'NONE', ( #36 ), #61 ) ;
#306 = MECHANICAL_DESIGN_GEOMETRIC_PRESENTATION_REPRESENTATION (  '', ( #234 ), #143 ) ;
#307 =( GEOMETRIC_REPRESENTATION_CONTEXT ( 3 ) GLOBAL_UNCERTAINTY_ASSIGNED_CONTEXT ( ( #284 ) ) GLOBAL_UNIT_ASSIGNED_CONTEXT ( ( #309, #55, #51 ) ) REPRESENTATION_CONTEXT ( 'NONE', 'WORKASPACE' ) );
#308 = ORIENTED_EDGE ( 'NONE', *, *, #318, .T. ) ;
#309 =( LENGTH_UNIT ( ) NAMED_UNIT ( * ) SI_UNIT ( .MILLI., .METRE. ) );
#310 = FACE_OUTER_BOUND ( 'NONE', #5, .T. ) ;
#311 = UNCERTAINTY_MEASURE_WITH_UNIT (LENGTH_MEASURE( 1.000000000000000082E-05 ), #322, 'distance_accuracy_value', 'NONE');
#312 = DIRECTION ( 'NONE',  ( -1.000000000000000000, -0.000000000000000000, -0.000000000000000000 ) ) ;
#313 =( NAMED_UNIT ( * ) PLANE_ANGLE_UNIT ( ) SI_UNIT ( $, .RADIAN. ) );
#314 = FILL_AREA_STYLE_COLOUR ( '', #24 ) ;
#315 = PRESENTATION_LAYER_ASSIGNMENT (  '', '', ( #229 ) ) ;
#316 = FILL_AREA_STYLE ('',( #314 ) ) ;
#317 = FACE_OUTER_BOUND ( 'NONE', #105, .T. ) ;
#318 = EDGE_CURVE ( 'NONE', #59, #59, #123, .T. ) ;
#319 = FILL_AREA_STYLE_COLOUR ( '', #104 ) ;
#320 =( LENGTH_UNIT ( ) NAMED_UNIT ( * ) SI_UNIT ( .MILLI., .METRE. ) );
#321 = AXIS2_PLACEMENT_3D ( 'NONE', #300, #270, #47 ) ;
#322 =( LENGTH_UNIT ( ) NAMED_UNIT ( * ) SI_UNIT ( .MILLI., .METRE. ) );
#323 = SURFACE_SIDE_STYLE ('',( #94 ) ) ;
#324 = EDGE_CURVE ( 'NONE', #193, #193, #109, .T. ) ;
#325 = FILL_AREA_STYLE_COLOUR ( '', #32 ) ;
#326 = PRESENTATION_LAYER_ASSIGNMENT (  '', '', ( #85 ) ) ;
#327 = COLOUR_RGB ( '',1.000000000000000000, 0.7607843137254901578, 0.6549019607843137303 ) ;
#328 = DIRECTION ( 'NONE',  ( -1.000000000000000000, -0.000000000000000000, -0.000000000000000000 ) ) ;
#329 = DIRECTION ( 'NONE',  ( 1.000000000000000000, 0.000000000000000000, 0.000000000000000000 ) ) ;
#330 = SURFACE_SIDE_STYLE ('',( #224 ) ) ;
#331 = EDGE_LOOP ( 'NONE', ( #280 ) ) ;
#332 = FILL_AREA_STYLE ('',( #29 ) ) ;
#333 = ORIENTED_EDGE ( 'NONE', *, *, #66, .F. ) ;
#334 =( NAMED_UNIT ( * ) PLANE_ANGLE_UNIT ( ) SI_UNIT ( $, .RADIAN. ) );
ENDSEC;
END-ISO-10303-21;
