ISO-10303-21;
HEADER;
FILE_DESCRIPTION (( 'STEP AP214' ),
    '1' );
FILE_NAME ('2049090.STEP',
    '2025-01-27T14:32:52',
    ( '' ),
    ( '' ),
    'SwSTEP 2.0',
    'SolidWorks 2024',
    '' );
FILE_SCHEMA (( 'AUTOMOTIVE_DESIGN' ));
ENDSEC;

DATA;
#1 = EDGE_CURVE ( 'NONE', #46, #80, #88, .T. ) ;
#2 = ORIENTED_EDGE ( 'NONE', *, *, #315, .F. ) ;
#3 = VECTOR ( 'NONE', #204, 1000.000000000000000 ) ;
#4 = VECTOR ( 'NONE', #161, 1000.000000000000114 ) ;
#5 = LINE ( 'NONE', #157, #3 ) ;
#6 =( NAMED_UNIT ( * ) PLANE_ANGLE_UNIT ( ) SI_UNIT ( $, .RADIAN. ) );
#7 = ADVANCED_FACE ( 'NONE', ( #232 ), #234, .F. ) ;
#8 = LINE ( 'NONE', #106, #217 ) ;
#9 = CIRCLE ( 'NONE', #147, 11.74999999999998757 ) ;
#10 = CARTESIAN_POINT ( 'NONE',  ( -9.237604307034029461, 3.250000000000000000, -16.00000000000001421 ) ) ;
#11 = EDGE_CURVE ( 'NONE', #264, #114, #8, .T. ) ;
#12 = DIRECTION ( 'NONE',  ( -1.000000000000000000, 0.000000000000000000, 0.000000000000000000 ) ) ;
#13 = CARTESIAN_POINT ( 'NONE',  ( 9.237604307033988604, -3.250000000000000000, -16.00000000000001421 ) ) ;
#14 = VECTOR ( 'NONE', #133, 1000.000000000000000 ) ;
#15 = ORIENTED_EDGE ( 'NONE', *, *, #262, .T. ) ;
#16 = EDGE_CURVE ( 'NONE', #80, #276, #290, .T. ) ;
#17 = ORIENTED_EDGE ( 'NONE', *, *, #315, .T. ) ;
#18 = EDGE_LOOP ( 'NONE', ( #102, #271, #222, #126 ) ) ;
#19 = VECTOR ( 'NONE', #131, 1000.000000000000000 ) ;
#20 = DIRECTION ( 'NONE',  ( 0.000000000000000000, 0.000000000000000000, 1.000000000000000000 ) ) ;
#21 = VECTOR ( 'NONE', #287, 1000.000000000000000 ) ;
#22 = ORIENTED_EDGE ( 'NONE', *, *, #164, .T. ) ;
#23 = DIRECTION ( 'NONE',  ( -0.000000000000000000, 1.000000000000000000, -0.000000000000000000 ) ) ;
#24 = ADVANCED_BREP_SHAPE_REPRESENTATION ( '2049090', ( #284, #70 ), #138 ) ;
#25 = ORIENTED_EDGE ( 'NONE', *, *, #321, .T. ) ;
#26 = EDGE_CURVE ( 'NONE', #276, #296, #40, .T. ) ;
#27 = CARTESIAN_POINT ( 'NONE',  ( 18.47520861406801274, 3.250000000000000000, -6.065541075634851741E-16 ) ) ;
#28 = EDGE_LOOP ( 'NONE', ( #143, #151, #49, #95, #238, #22 ) ) ;
#29 = DIRECTION ( 'NONE',  ( -0.000000000000000000, -1.000000000000000000, -0.000000000000000000 ) ) ;
#30 = AXIS2_PLACEMENT_3D ( 'NONE', #251, #274, #84 ) ;
#31 = ORIENTED_EDGE ( 'NONE', *, *, #226, .T. ) ;
#32 = CARTESIAN_POINT ( 'NONE',  ( 0.000000000000000000, 0.000000000000000000, 0.000000000000000000 ) ) ;
#33 = PLANE ( 'NONE',  #85 ) ;
#34 = EDGE_CURVE ( 'NONE', #298, #293, #309, .T. ) ;
#35 = SURFACE_STYLE_USAGE ( .BOTH. , #302 ) ;
#36 = DIRECTION ( 'NONE',  ( 0.5000000000000001110, 0.000000000000000000, 0.8660254037844384856 ) ) ;
#37 = CARTESIAN_POINT ( 'NONE',  ( -18.47520861406803405, 3.250000000000000000, -1.527326526116635910E-16 ) ) ;
#38 = LINE ( 'NONE', #183, #19 ) ;
#39 = CARTESIAN_POINT ( 'NONE',  ( 9.237604307033999262, 3.250000000000000000, 16.00000000000001421 ) ) ;
#40 = LINE ( 'NONE', #67, #77 ) ;
#41 = VECTOR ( 'NONE', #307, 1000.000000000000000 ) ;
#42 = CLOSED_SHELL ( 'NONE', ( #311, #79, #210, #7, #91, #218, #272, #297, #289, #141 ) ) ;
#43 = PLANE ( 'NONE',  #71 ) ;
#44 = CARTESIAN_POINT ( 'NONE',  ( 9.237604307033999262, 3.250000000000000000, 16.00000000000001421 ) ) ;
#45 = MECHANICAL_DESIGN_GEOMETRIC_PRESENTATION_REPRESENTATION (  '', ( #76 ), #275 ) ;
#46 = VERTEX_POINT ( 'NONE', #215 ) ;
#47 = CARTESIAN_POINT ( 'NONE',  ( 18.47520861406801274, 3.250000000000000000, -6.065541075634851741E-16 ) ) ;
#48 = ORIENTED_EDGE ( 'NONE', *, *, #16, .T. ) ;
#49 = ORIENTED_EDGE ( 'NONE', *, *, #34, .T. ) ;
#50 = CARTESIAN_POINT ( 'NONE',  ( -9.237604307034009921, -3.250000000000000000, 16.00000000000001421 ) ) ;
#51 = EDGE_LOOP ( 'NONE', ( #52, #197 ) ) ;
#52 = ORIENTED_EDGE ( 'NONE', *, *, #132, .T. ) ;
#53 = ORIENTED_EDGE ( 'NONE', *, *, #16, .F. ) ;
#54 = FACE_OUTER_BOUND ( 'NONE', #28, .T. ) ;
#55 = FACE_OUTER_BOUND ( 'NONE', #115, .T. ) ;
#56 = COLOUR_RGB ( '',0.7921568627450980005, 0.8196078431372548767, 0.9333333333333333481 ) ;
#57 = VECTOR ( 'NONE', #145, 1000.000000000000227 ) ;
#58 = EDGE_LOOP ( 'NONE', ( #156, #291, #120, #243 ) ) ;
#59 = CARTESIAN_POINT ( 'NONE',  ( 0.000000000000000000, -3.249999999999998224, 0.000000000000000000 ) ) ;
#60 = CARTESIAN_POINT ( 'NONE',  ( -18.47520861406803405, -3.250000000000000000, -1.527326526116635910E-16 ) ) ;
#61 = CARTESIAN_POINT ( 'NONE',  ( -18.47520861406803405, 3.250000000000000000, -1.527326526116635910E-16 ) ) ;
#62 = FACE_OUTER_BOUND ( 'NONE', #194, .T. ) ;
#63 = LINE ( 'NONE', #310, #206 ) ;
#64 = VECTOR ( 'NONE', #101, 1000.000000000000000 ) ;
#65 = VECTOR ( 'NONE', #244, 1000.000000000000114 ) ;
#66 = CARTESIAN_POINT ( 'NONE',  ( 9.237604307033999262, -3.250000000000000000, 16.00000000000001421 ) ) ;
#67 = CARTESIAN_POINT ( 'NONE',  ( -9.237604307034029461, -3.250000000000000000, -16.00000000000001421 ) ) ;
#68 = EDGE_CURVE ( 'NONE', #300, #46, #257, .T. ) ;
#69 = EDGE_LOOP ( 'NONE', ( #123, #220, #82, #225 ) ) ;
#70 = AXIS2_PLACEMENT_3D ( 'NONE', #32, #171, #301 ) ;
#71 = AXIS2_PLACEMENT_3D ( 'NONE', #10, #285, #256 ) ;
#72 = ORIENTED_EDGE ( 'NONE', *, *, #34, .F. ) ;
#73 = VERTEX_POINT ( 'NONE', #162 ) ;
#74 = LINE ( 'NONE', #27, #224 ) ;
#75 = ORIENTED_EDGE ( 'NONE', *, *, #124, .F. ) ;
#76 = STYLED_ITEM ( 'NONE', ( #128 ), #284 ) ;
#77 = VECTOR ( 'NONE', #165, 1000.000000000000227 ) ;
#78 = DIRECTION ( 'NONE',  ( 0.000000000000000000, 1.000000000000000000, 0.000000000000000000 ) ) ;
#79 = ADVANCED_FACE ( 'NONE', ( #92 ), #108, .F. ) ;
#80 = VERTEX_POINT ( 'NONE', #261 ) ;
#81 = DIRECTION ( 'NONE',  ( -0.000000000000000000, -1.000000000000000000, -0.000000000000000000 ) ) ;
#82 = ORIENTED_EDGE ( 'NONE', *, *, #188, .F. ) ;
#83 = CARTESIAN_POINT ( 'NONE',  ( -9.237604307034029461, 3.250000000000000000, -16.00000000000001421 ) ) ;
#84 = DIRECTION ( 'NONE',  ( -1.000000000000000000, 0.000000000000000000, -0.000000000000000000 ) ) ;
#85 = AXIS2_PLACEMENT_3D ( 'NONE', #118, #78, #239 ) ;
#86 = AXIS2_PLACEMENT_3D ( 'NONE', #268, #122, #249 ) ;
#87 = DIRECTION ( 'NONE',  ( 0.8660254037844385966, 0.000000000000000000, -0.5000000000000002220 ) ) ;
#88 = LINE ( 'NONE', #280, #172 ) ;
#89 = SHAPE_DEFINITION_REPRESENTATION ( #125, #24 ) ;
#90 = CARTESIAN_POINT ( 'NONE',  ( 0.000000000000000000, 3.250000000000000000, 11.74999999999999289 ) ) ;
#91 = ADVANCED_FACE ( 'NONE', ( #214 ), #43, .F. ) ;
#92 = FACE_OUTER_BOUND ( 'NONE', #58, .T. ) ;
#93 = FACE_OUTER_BOUND ( 'NONE', #203, .T. ) ;
#94 = CARTESIAN_POINT ( 'NONE',  ( 0.000000000000000000, 3.250000000000000000, 0.000000000000000000 ) ) ;
#95 = ORIENTED_EDGE ( 'NONE', *, *, #188, .T. ) ;
#96 = EDGE_LOOP ( 'NONE', ( #326, #75, #149, #25 ) ) ;
#97 = CYLINDRICAL_SURFACE ( 'NONE', #304, 11.74999999999999289 ) ;
#98 = ORIENTED_EDGE ( 'NONE', *, *, #266, .F. ) ;
#99 = CARTESIAN_POINT ( 'NONE',  ( 0.000000000000000000, 3.250000000000000000, 0.000000000000000000 ) ) ;
#100 = DIRECTION ( 'NONE',  ( 0.000000000000000000, 1.000000000000000000, 0.000000000000000000 ) ) ;
#101 = DIRECTION ( 'NONE',  ( 0.5000000000000001110, 0.000000000000000000, 0.8660254037844385966 ) ) ;
#102 = ORIENTED_EDGE ( 'NONE', *, *, #236, .F. ) ;
#103 = CARTESIAN_POINT ( 'NONE',  ( 0.000000000000000000, -3.249999999999998224, 11.75000000000000000 ) ) ;
#104 = PLANE ( 'NONE',  #185 ) ;
#105 = FACE_BOUND ( 'NONE', #51, .T. ) ;
#106 = CARTESIAN_POINT ( 'NONE',  ( 1.438959988998139174E-15, 3.250000000000000000, -11.74999999999999289 ) ) ;
#107 = AXIS2_PLACEMENT_3D ( 'NONE', #233, #110, #137 ) ;
#108 = PLANE ( 'NONE',  #139 ) ;
#109 = CARTESIAN_POINT ( 'NONE',  ( 9.237604307033988604, 3.250000000000000000, -16.00000000000001421 ) ) ;
#110 = DIRECTION ( 'NONE',  ( -0.000000000000000000, 1.000000000000000000, -0.000000000000000000 ) ) ;
#111 = AXIS2_PLACEMENT_3D ( 'NONE', #94, #283, #308 ) ;
#112 = EDGE_CURVE ( 'NONE', #195, #300, #314, .T. ) ;
#113 = LINE ( 'NONE', #212, #213 ) ;
#114 = VERTEX_POINT ( 'NONE', #259 ) ;
#115 = EDGE_LOOP ( 'NONE', ( #17, #269, #116, #319 ) ) ;
#116 = ORIENTED_EDGE ( 'NONE', *, *, #164, .F. ) ;
#117 = VECTOR ( 'NONE', #176, 1000.000000000000000 ) ;
#118 = CARTESIAN_POINT ( 'NONE',  ( 0.000000000000000000, -3.250000000000000000, 0.000000000000000000 ) ) ;
#119 = LINE ( 'NONE', #169, #57 ) ;
#120 = ORIENTED_EDGE ( 'NONE', *, *, #181, .F. ) ;
#121 = CARTESIAN_POINT ( 'NONE',  ( 9.237604307033988604, 3.250000000000000000, -16.00000000000001421 ) ) ;
#122 = DIRECTION ( 'NONE',  ( -0.000000000000000000, 1.000000000000000000, -0.000000000000000000 ) ) ;
#123 = ORIENTED_EDGE ( 'NONE', *, *, #26, .T. ) ;
#124 = EDGE_CURVE ( 'NONE', #298, #80, #113, .T. ) ;
#125 = PRODUCT_DEFINITION_SHAPE ( 'NONE', 'NONE',  #282 ) ;
#126 = ORIENTED_EDGE ( 'NONE', *, *, #152, .F. ) ;
#127 = FILL_AREA_STYLE_COLOUR ( '', #56 ) ;
#128 = PRESENTATION_STYLE_ASSIGNMENT (( #35 ) ) ;
#129 = DIRECTION ( 'NONE',  ( 0.5000000000000001110, 0.000000000000000000, 0.8660254037844385966 ) ) ;
#130 = VECTOR ( 'NONE', #81, 1000.000000000000000 ) ;
#131 = DIRECTION ( 'NONE',  ( -0.000000000000000000, -1.000000000000000000, -0.000000000000000000 ) ) ;
#132 = EDGE_CURVE ( 'NONE', #192, #264, #263, .T. ) ;
#133 = DIRECTION ( 'NONE',  ( -0.000000000000000000, -1.000000000000000000, -0.000000000000000000 ) ) ;
#134 = LINE ( 'NONE', #90, #255 ) ;
#135 = DIRECTION ( 'NONE',  ( -0.8660254037844388186, 0.000000000000000000, -0.4999999999999996114 ) ) ;
#136 = DIRECTION ( 'NONE',  ( -0.4999999999999996114, 0.000000000000000000, 0.8660254037844388186 ) ) ;
#137 = DIRECTION ( 'NONE',  ( 0.000000000000000000, 0.000000000000000000, 1.000000000000000000 ) ) ;
#138 =( GEOMETRIC_REPRESENTATION_CONTEXT ( 3 ) GLOBAL_UNCERTAINTY_ASSIGNED_CONTEXT ( ( #313 ) ) GLOBAL_UNIT_ASSIGNED_CONTEXT ( ( #267, #273, #320 ) ) REPRESENTATION_CONTEXT ( 'NONE', 'WORKASPACE' ) );
#139 = AXIS2_PLACEMENT_3D ( 'NONE', #44, #135, #136 ) ;
#140 = ORIENTED_EDGE ( 'NONE', *, *, #1, .F. ) ;
#141 = ADVANCED_FACE ( 'NONE', ( #93 ), #189, .F. ) ;
#142 = CARTESIAN_POINT ( 'NONE',  ( 9.237604307033999262, 3.250000000000000000, 16.00000000000001421 ) ) ;
#143 = ORIENTED_EDGE ( 'NONE', *, *, #181, .T. ) ;
#144 = LINE ( 'NONE', #173, #117 ) ;
#145 = DIRECTION ( 'NONE',  ( -0.4999999999999992228, 0.000000000000000000, 0.8660254037844390407 ) ) ;
#146 = ORIENTED_EDGE ( 'NONE', *, *, #132, .F. ) ;
#147 = AXIS2_PLACEMENT_3D ( 'NONE', #316, #240, #20 ) ;
#148 = DIRECTION ( 'NONE',  ( 1.000000000000000000, 0.000000000000000000, 0.000000000000000000 ) ) ;
#149 = ORIENTED_EDGE ( 'NONE', *, *, #279, .F. ) ;
#150 = CARTESIAN_POINT ( 'NONE',  ( -18.47520861406803405, 3.250000000000000000, -1.527326526116635910E-16 ) ) ;
#151 = ORIENTED_EDGE ( 'NONE', *, *, #279, .T. ) ;
#152 = EDGE_CURVE ( 'NONE', #192, #227, #134, .T. ) ;
#153 = LINE ( 'NONE', #142, #65 ) ;
#154 = ORIENTED_EDGE ( 'NONE', *, *, #186, .T. ) ;
#155 = CARTESIAN_POINT ( 'NONE',  ( 0.000000000000000000, 3.250000000000000000, 11.74999999999998757 ) ) ;
#156 = ORIENTED_EDGE ( 'NONE', *, *, #68, .T. ) ;
#157 = CARTESIAN_POINT ( 'NONE',  ( -9.237604307034029461, 3.250000000000000000, -16.00000000000001421 ) ) ;
#158 = CARTESIAN_POINT ( 'NONE',  ( 1.438959988998140160E-15, -3.249999999999998224, -11.75000000000000178 ) ) ;
#159 = DIRECTION ( 'NONE',  ( -0.5000000000000001110, 0.000000000000000000, -0.8660254037844384856 ) ) ;
#160 = FILL_AREA_STYLE ('',( #127 ) ) ;
#161 = DIRECTION ( 'NONE',  ( 0.4999999999999996669, 0.000000000000000000, -0.8660254037844388186 ) ) ;
#162 = CARTESIAN_POINT ( 'NONE',  ( -9.237604307034009921, 3.250000000000000000, 16.00000000000001421 ) ) ;
#163 = DIRECTION ( 'NONE',  ( 1.000000000000000000, 0.000000000000000000, -0.000000000000000000 ) ) ;
#164 = EDGE_CURVE ( 'NONE', #73, #195, #63, .T. ) ;
#165 = DIRECTION ( 'NONE',  ( -0.4999999999999992228, 0.000000000000000000, 0.8660254037844390407 ) ) ;
#166 = VECTOR ( 'NONE', #12, 1000.000000000000000 ) ;
#167 = VERTEX_POINT ( 'NONE', #150 ) ;
#168 = VECTOR ( 'NONE', #129, 1000.000000000000000 ) ;
#169 = CARTESIAN_POINT ( 'NONE',  ( -9.237604307034029461, 3.250000000000000000, -16.00000000000001421 ) ) ;
#170 = VERTEX_POINT ( 'NONE', #47 ) ;
#171 = DIRECTION ( 'NONE',  ( 0.000000000000000000, 0.000000000000000000, 1.000000000000000000 ) ) ;
#172 = VECTOR ( 'NONE', #190, 1000.000000000000000 ) ;
#173 = CARTESIAN_POINT ( 'NONE',  ( -9.237604307034009921, -3.250000000000000000, 16.00000000000001421 ) ) ;
#174 = PRODUCT ( '2049090', '2049090', '', ( #270 ) ) ;
#175 = VERTEX_POINT ( 'NONE', #50 ) ;
#176 = DIRECTION ( 'NONE',  ( 1.000000000000000000, 0.000000000000000000, 0.000000000000000000 ) ) ;
#177 = LINE ( 'NONE', #60, #64 ) ;
#178 = ORIENTED_EDGE ( 'NONE', *, *, #202, .F. ) ;
#179 = CIRCLE ( 'NONE', #231, 11.75000000000000000 ) ;
#180 = CARTESIAN_POINT ( 'NONE',  ( 9.237604307033999262, -3.250000000000000000, 16.00000000000001421 ) ) ;
#181 = EDGE_CURVE ( 'NONE', #195, #170, #153, .T. ) ;
#182 = CARTESIAN_POINT ( 'NONE',  ( 18.47520861406801274, 3.250000000000000000, -6.065541075634851741E-16 ) ) ;
#183 = CARTESIAN_POINT ( 'NONE',  ( -9.237604307034009921, 3.250000000000000000, 16.00000000000001421 ) ) ;
#184 = CARTESIAN_POINT ( 'NONE',  ( -9.237604307034029461, -3.250000000000000000, -16.00000000000001421 ) ) ;
#185 = AXIS2_PLACEMENT_3D ( 'NONE', #182, #277, #36 ) ;
#186 = EDGE_CURVE ( 'NONE', #227, #114, #9, .T. ) ;
#187 = DIRECTION ( 'NONE',  ( -0.000000000000000000, 1.000000000000000000, -0.000000000000000000 ) ) ;
#188 = EDGE_CURVE ( 'NONE', #293, #167, #119, .T. ) ;
#189 = CYLINDRICAL_SURFACE ( 'NONE', #111, 11.74999999999999289 ) ;
#190 = DIRECTION ( 'NONE',  ( -0.5000000000000001110, 0.000000000000000000, -0.8660254037844385966 ) ) ;
#191 = EDGE_CURVE ( 'NONE', #114, #227, #219, .T. ) ;
#192 = VERTEX_POINT ( 'NONE', #103 ) ;
#193 = AXIS2_PLACEMENT_3D ( 'NONE', #61, #87, #159 ) ;
#194 = EDGE_LOOP ( 'NONE', ( #31, #178, #98, #15 ) ) ;
#195 = VERTEX_POINT ( 'NONE', #252 ) ;
#196 = DIRECTION ( 'NONE',  ( 0.000000000000000000, 0.000000000000000000, 1.000000000000000000 ) ) ;
#197 = ORIENTED_EDGE ( 'NONE', *, *, #236, .T. ) ;
#198 = FACE_OUTER_BOUND ( 'NONE', #18, .T. ) ;
#199 = ORIENTED_EDGE ( 'NONE', *, *, #186, .F. ) ;
#200 = PLANE ( 'NONE',  #258 ) ;
#201 = LINE ( 'NONE', #37, #130 ) ;
#202 = EDGE_CURVE ( 'NONE', #73, #175, #38, .T. ) ;
#203 = EDGE_LOOP ( 'NONE', ( #207, #146, #250, #154 ) ) ;
#204 = DIRECTION ( 'NONE',  ( -0.000000000000000000, -1.000000000000000000, -0.000000000000000000 ) ) ;
#205 = CARTESIAN_POINT ( 'NONE',  ( -18.47520861406803405, 3.250000000000000000, -1.527326526116635910E-16 ) ) ;
#206 = VECTOR ( 'NONE', #148, 1000.000000000000000 ) ;
#207 = ORIENTED_EDGE ( 'NONE', *, *, #11, .F. ) ;
#208 = CARTESIAN_POINT ( 'NONE',  ( 18.47520861406801274, 3.250000000000000000, -6.065541075634851741E-16 ) ) ;
#209 = FACE_OUTER_BOUND ( 'NONE', #237, .T. ) ;
#210 = ADVANCED_FACE ( 'NONE', ( #324 ), #104, .F. ) ;
#211 = APPLICATION_PROTOCOL_DEFINITION ( 'draft international standard', 'automotive_design', 1998, #303 ) ;
#212 = CARTESIAN_POINT ( 'NONE',  ( 9.237604307033988604, 3.250000000000000000, -16.00000000000001421 ) ) ;
#213 = VECTOR ( 'NONE', #230, 1000.000000000000000 ) ;
#214 = FACE_OUTER_BOUND ( 'NONE', #69, .T. ) ;
#215 = CARTESIAN_POINT ( 'NONE',  ( 18.47520861406801274, -3.250000000000000000, -6.065541075634851741E-16 ) ) ;
#216 = CARTESIAN_POINT ( 'NONE',  ( 9.237604307033988604, 3.250000000000000000, -16.00000000000001421 ) ) ;
#217 = VECTOR ( 'NONE', #260, 1000.000000000000000 ) ;
#218 = ADVANCED_FACE ( 'NONE', ( #62 ), #281, .F. ) ;
#219 = CIRCLE ( 'NONE', #86, 11.74999999999998757 ) ;
#220 = ORIENTED_EDGE ( 'NONE', *, *, #262, .F. ) ;
#221 = ORIENTED_EDGE ( 'NONE', *, *, #68, .F. ) ;
#222 = ORIENTED_EDGE ( 'NONE', *, *, #191, .T. ) ;
#223 = DIRECTION ( 'NONE',  ( 0.000000000000000000, -0.000000000000000000, 1.000000000000000000 ) ) ;
#224 = VECTOR ( 'NONE', #29, 1000.000000000000000 ) ;
#225 = ORIENTED_EDGE ( 'NONE', *, *, #247, .T. ) ;
#226 = EDGE_CURVE ( 'NONE', #296, #175, #177, .T. ) ;
#227 = VERTEX_POINT ( 'NONE', #155 ) ;
#228 = LINE ( 'NONE', #208, #41 ) ;
#229 = LINE ( 'NONE', #205, #168 ) ;
#230 = DIRECTION ( 'NONE',  ( -0.000000000000000000, -1.000000000000000000, -0.000000000000000000 ) ) ;
#231 = AXIS2_PLACEMENT_3D ( 'NONE', #59, #254, #278 ) ;
#232 = FACE_OUTER_BOUND ( 'NONE', #248, .T. ) ;
#233 = CARTESIAN_POINT ( 'NONE',  ( 0.000000000000000000, -3.249999999999998224, 0.000000000000000000 ) ) ;
#234 = PLANE ( 'NONE',  #322 ) ;
#235 = UNCERTAINTY_MEASURE_WITH_UNIT (LENGTH_MEASURE( 1.000000000000000082E-05 ), #306, 'distance_accuracy_value', 'NONE');
#236 = EDGE_CURVE ( 'NONE', #264, #192, #179, .T. ) ;
#237 = EDGE_LOOP ( 'NONE', ( #221, #2, #265, #241, #53, #140 ) ) ;
#238 = ORIENTED_EDGE ( 'NONE', *, *, #266, .T. ) ;
#239 = DIRECTION ( 'NONE',  ( 0.000000000000000000, -0.000000000000000000, 1.000000000000000000 ) ) ;
#240 = DIRECTION ( 'NONE',  ( -0.000000000000000000, 1.000000000000000000, -0.000000000000000000 ) ) ;
#241 = ORIENTED_EDGE ( 'NONE', *, *, #26, .F. ) ;
#242 = CARTESIAN_POINT ( 'NONE',  ( 0.000000000000000000, 3.250000000000000000, 0.000000000000000000 ) ) ;
#243 = ORIENTED_EDGE ( 'NONE', *, *, #112, .T. ) ;
#244 = DIRECTION ( 'NONE',  ( 0.4999999999999996669, 0.000000000000000000, -0.8660254037844388186 ) ) ;
#245 = ORIENTED_EDGE ( 'NONE', *, *, #191, .F. ) ;
#246 = FACE_BOUND ( 'NONE', #323, .T. ) ;
#247 = EDGE_CURVE ( 'NONE', #293, #276, #5, .T. ) ;
#248 = EDGE_LOOP ( 'NONE', ( #48, #317, #72, #294 ) ) ;
#249 = DIRECTION ( 'NONE',  ( 0.000000000000000000, 0.000000000000000000, 1.000000000000000000 ) ) ;
#250 = ORIENTED_EDGE ( 'NONE', *, *, #152, .T. ) ;
#251 = CARTESIAN_POINT ( 'NONE',  ( -9.237604307034009921, 3.250000000000000000, 16.00000000000001421 ) ) ;
#252 = CARTESIAN_POINT ( 'NONE',  ( 9.237604307033999262, 3.250000000000000000, 16.00000000000001421 ) ) ;
#253 = PRODUCT_DEFINITION_FORMATION_WITH_SPECIFIED_SOURCE ( 'ANY', '', #174, .NOT_KNOWN. ) ;
#254 = DIRECTION ( 'NONE',  ( -0.000000000000000000, 1.000000000000000000, -0.000000000000000000 ) ) ;
#255 = VECTOR ( 'NONE', #187, 1000.000000000000000 ) ;
#256 = DIRECTION ( 'NONE',  ( 0.4999999999999992228, 0.000000000000000000, -0.8660254037844390407 ) ) ;
#257 = LINE ( 'NONE', #66, #4 ) ;
#258 = AXIS2_PLACEMENT_3D ( 'NONE', #99, #100, #223 ) ;
#259 = CARTESIAN_POINT ( 'NONE',  ( 1.438959988998138977E-15, 3.250000000000000000, -11.74999999999998757 ) ) ;
#260 = DIRECTION ( 'NONE',  ( -0.000000000000000000, 1.000000000000000000, -0.000000000000000000 ) ) ;
#261 = CARTESIAN_POINT ( 'NONE',  ( 9.237604307033988604, -3.250000000000000000, -16.00000000000001421 ) ) ;
#262 = EDGE_CURVE ( 'NONE', #167, #296, #201, .T. ) ;
#263 = CIRCLE ( 'NONE', #107, 11.75000000000000000 ) ;
#264 = VERTEX_POINT ( 'NONE', #158 ) ;
#265 = ORIENTED_EDGE ( 'NONE', *, *, #226, .F. ) ;
#266 = EDGE_CURVE ( 'NONE', #167, #73, #229, .T. ) ;
#267 =( LENGTH_UNIT ( ) NAMED_UNIT ( * ) SI_UNIT ( .MILLI., .METRE. ) );
#268 = CARTESIAN_POINT ( 'NONE',  ( 0.000000000000000000, 3.250000000000000000, 0.000000000000000000 ) ) ;
#269 = ORIENTED_EDGE ( 'NONE', *, *, #112, .F. ) ;
#270 = PRODUCT_CONTEXT ( 'NONE', #325, 'mechanical' ) ;
#271 = ORIENTED_EDGE ( 'NONE', *, *, #11, .T. ) ;
#272 = ADVANCED_FACE ( 'NONE', ( #55 ), #299, .F. ) ;
#273 =( NAMED_UNIT ( * ) PLANE_ANGLE_UNIT ( ) SI_UNIT ( $, .RADIAN. ) );
#274 = DIRECTION ( 'NONE',  ( 0.000000000000000000, 0.000000000000000000, -1.000000000000000000 ) ) ;
#275 =( GEOMETRIC_REPRESENTATION_CONTEXT ( 3 ) GLOBAL_UNCERTAINTY_ASSIGNED_CONTEXT ( ( #235 ) ) GLOBAL_UNIT_ASSIGNED_CONTEXT ( ( #306, #6, #305 ) ) REPRESENTATION_CONTEXT ( 'NONE', 'WORKASPACE' ) );
#276 = VERTEX_POINT ( 'NONE', #184 ) ;
#277 = DIRECTION ( 'NONE',  ( -0.8660254037844385966, 0.000000000000000000, 0.5000000000000002220 ) ) ;
#278 = DIRECTION ( 'NONE',  ( 0.000000000000000000, 0.000000000000000000, 1.000000000000000000 ) ) ;
#279 = EDGE_CURVE ( 'NONE', #170, #298, #228, .T. ) ;
#280 = CARTESIAN_POINT ( 'NONE',  ( 18.47520861406801274, -3.250000000000000000, -6.065541075634851741E-16 ) ) ;
#281 = PLANE ( 'NONE',  #193 ) ;
#282 = PRODUCT_DEFINITION ( 'UNKNOWN', '', #253, #288 ) ;
#283 = DIRECTION ( 'NONE',  ( -0.000000000000000000, 1.000000000000000000, -0.000000000000000000 ) ) ;
#284 = MANIFOLD_SOLID_BREP ( 'M25x1.5 Gewindebohrung1', #42 ) ;
#285 = DIRECTION ( 'NONE',  ( 0.8660254037844391517, -0.000000000000000000, 0.4999999999999992784 ) ) ;
#286 = PRESENTATION_LAYER_ASSIGNMENT (  '', '', ( #76 ) ) ;
#287 = DIRECTION ( 'NONE',  ( -1.000000000000000000, 0.000000000000000000, 0.000000000000000000 ) ) ;
#288 = PRODUCT_DEFINITION_CONTEXT ( 'detailed design', #303, 'design' ) ;
#289 = ADVANCED_FACE ( 'NONE', ( #105, #209 ), #33, .F. ) ;
#290 = LINE ( 'NONE', #13, #21 ) ;
#291 = ORIENTED_EDGE ( 'NONE', *, *, #321, .F. ) ;
#292 = PRODUCT_RELATED_PRODUCT_CATEGORY ( 'part', '', ( #174 ) ) ;
#293 = VERTEX_POINT ( 'NONE', #83 ) ;
#294 = ORIENTED_EDGE ( 'NONE', *, *, #124, .T. ) ;
#295 = APPLICATION_PROTOCOL_DEFINITION ( 'draft international standard', 'automotive_design', 1998, #325 ) ;
#296 = VERTEX_POINT ( 'NONE', #318 ) ;
#297 = ADVANCED_FACE ( 'NONE', ( #246, #54 ), #200, .T. ) ;
#298 = VERTEX_POINT ( 'NONE', #121 ) ;
#299 = PLANE ( 'NONE',  #30 ) ;
#300 = VERTEX_POINT ( 'NONE', #180 ) ;
#301 = DIRECTION ( 'NONE',  ( 1.000000000000000000, 0.000000000000000000, 0.000000000000000000 ) ) ;
#302 = SURFACE_SIDE_STYLE ('',( #327 ) ) ;
#303 = APPLICATION_CONTEXT ( 'automotive_design' ) ;
#304 = AXIS2_PLACEMENT_3D ( 'NONE', #242, #23, #196 ) ;
#305 =( NAMED_UNIT ( * ) SI_UNIT ( $, .STERADIAN. ) SOLID_ANGLE_UNIT ( ) );
#306 =( LENGTH_UNIT ( ) NAMED_UNIT ( * ) SI_UNIT ( .MILLI., .METRE. ) );
#307 = DIRECTION ( 'NONE',  ( -0.5000000000000001110, 0.000000000000000000, -0.8660254037844385966 ) ) ;
#308 = DIRECTION ( 'NONE',  ( 0.000000000000000000, 0.000000000000000000, 1.000000000000000000 ) ) ;
#309 = LINE ( 'NONE', #216, #166 ) ;
#310 = CARTESIAN_POINT ( 'NONE',  ( -9.237604307034009921, 3.250000000000000000, 16.00000000000001421 ) ) ;
#311 = ADVANCED_FACE ( 'NONE', ( #198 ), #97, .F. ) ;
#312 = DIRECTION ( 'NONE',  ( 0.000000000000000000, -0.000000000000000000, 1.000000000000000000 ) ) ;
#313 = UNCERTAINTY_MEASURE_WITH_UNIT (LENGTH_MEASURE( 1.000000000000000082E-05 ), #267, 'distance_accuracy_value', 'NONE');
#314 = LINE ( 'NONE', #39, #14 ) ;
#315 = EDGE_CURVE ( 'NONE', #175, #300, #144, .T. ) ;
#316 = CARTESIAN_POINT ( 'NONE',  ( 0.000000000000000000, 3.250000000000000000, 0.000000000000000000 ) ) ;
#317 = ORIENTED_EDGE ( 'NONE', *, *, #247, .F. ) ;
#318 = CARTESIAN_POINT ( 'NONE',  ( -18.47520861406803405, -3.250000000000000000, -1.527326526116635910E-16 ) ) ;
#319 = ORIENTED_EDGE ( 'NONE', *, *, #202, .T. ) ;
#320 =( NAMED_UNIT ( * ) SI_UNIT ( $, .STERADIAN. ) SOLID_ANGLE_UNIT ( ) );
#321 = EDGE_CURVE ( 'NONE', #170, #46, #74, .T. ) ;
#322 = AXIS2_PLACEMENT_3D ( 'NONE', #109, #312, #163 ) ;
#323 = EDGE_LOOP ( 'NONE', ( #199, #245 ) ) ;
#324 = FACE_OUTER_BOUND ( 'NONE', #96, .T. ) ;
#325 = APPLICATION_CONTEXT ( 'automotive_design' ) ;
#326 = ORIENTED_EDGE ( 'NONE', *, *, #1, .T. ) ;
#327 = SURFACE_STYLE_FILL_AREA ( #160 ) ;
ENDSEC;
END-ISO-10303-21;
