ISO-10303-21;
HEADER;
FILE_DESCRIPTION (( 'STEP AP214' ),
    '1' );
FILE_NAME ('2049104.STEP',
    '2025-01-27T14:38:20',
    ( '' ),
    ( '' ),
    'SwSTEP 2.0',
    'SolidWorks 2024',
    '' );
FILE_SCHEMA (( 'AUTOMOTIVE_DESIGN' ));
ENDSEC;

DATA;
#1 = ADVANCED_FACE ( 'NONE', ( #214 ), #6, .F. ) ;
#2 = CARTESIAN_POINT ( 'NONE',  ( -11.83568051838733126, 3.500000000000000000, 20.50000000000000711 ) ) ;
#3 = VERTEX_POINT ( 'NONE', #213 ) ;
#4 = AXIS2_PLACEMENT_3D ( 'NONE', #83, #257, #190 ) ;
#5 = ORIENTED_EDGE ( 'NONE', *, *, #250, .F. ) ;
#6 = PLANE ( 'NONE',  #59 ) ;
#7 = DIRECTION ( 'NONE',  ( -0.000000000000000000, 1.000000000000000000, -0.000000000000000000 ) ) ;
#8 = VECTOR ( 'NONE', #141, 1000.000000000000227 ) ;
#9 = VERTEX_POINT ( 'NONE', #281 ) ;
#10 = LINE ( 'NONE', #88, #289 ) ;
#11 = EDGE_CURVE ( 'NONE', #288, #9, #89, .T. ) ;
#12 = DIRECTION ( 'NONE',  ( -0.5000000000000001110, 0.000000000000000000, -0.8660254037844385966 ) ) ;
#13 = DIRECTION ( 'NONE',  ( -0.000000000000000000, -1.000000000000000000, -0.000000000000000000 ) ) ;
#14 = VECTOR ( 'NONE', #247, 1000.000000000000000 ) ;
#15 = SURFACE_SIDE_STYLE ('',( #244 ) ) ;
#16 = CARTESIAN_POINT ( 'NONE',  ( 11.83568051838730462, 3.500000000000000000, -20.50000000000002487 ) ) ;
#17 = UNCERTAINTY_MEASURE_WITH_UNIT (LENGTH_MEASURE( 1.000000000000000082E-05 ), #246, 'distance_accuracy_value', 'NONE');
#18 = CARTESIAN_POINT ( 'NONE',  ( 11.83568051838732060, 3.500000000000000000, 20.50000000000001066 ) ) ;
#19 = DIRECTION ( 'NONE',  ( -0.000000000000000000, 1.000000000000000000, -0.000000000000000000 ) ) ;
#20 = ORIENTED_EDGE ( 'NONE', *, *, #173, .F. ) ;
#21 = CARTESIAN_POINT ( 'NONE',  ( 23.67136103677464831, 3.500000000000000000, -6.748279287735689359E-15 ) ) ;
#22 = ORIENTED_EDGE ( 'NONE', *, *, #87, .T. ) ;
#23 = AXIS2_PLACEMENT_3D ( 'NONE', #145, #318, #12 ) ;
#24 = DIRECTION ( 'NONE',  ( 0.000000000000000000, 0.000000000000000000, 1.000000000000000000 ) ) ;
#25 = VERTEX_POINT ( 'NONE', #309 ) ;
#26 = ADVANCED_FACE ( 'NONE', ( #258 ), #84, .F. ) ;
#27 = DIRECTION ( 'NONE',  ( -0.5000000000000002220, 0.000000000000000000, -0.8660254037844384856 ) ) ;
#28 = EDGE_LOOP ( 'NONE', ( #193, #103 ) ) ;
#29 = STYLED_ITEM ( 'NONE', ( #94 ), #186 ) ;
#30 = EDGE_LOOP ( 'NONE', ( #254, #212, #22, #178, #283, #46 ) ) ;
#31 = CARTESIAN_POINT ( 'NONE',  ( 11.83568051838730462, 3.500000000000000000, -20.50000000000002487 ) ) ;
#32 = VERTEX_POINT ( 'NONE', #237 ) ;
#33 = CIRCLE ( 'NONE', #225, 15.24999999999998757 ) ;
#34 = DIRECTION ( 'NONE',  ( -1.000000000000000000, 0.000000000000000000, 1.465672779255767079E-16 ) ) ;
#35 = LINE ( 'NONE', #162, #168 ) ;
#36 = DIRECTION ( 'NONE',  ( -0.000000000000000000, 1.000000000000000000, -0.000000000000000000 ) ) ;
#37 = EDGE_CURVE ( 'NONE', #288, #25, #123, .T. ) ;
#38 = CARTESIAN_POINT ( 'NONE',  ( 0.000000000000000000, 3.499999999999999556, 0.000000000000000000 ) ) ;
#39 = AXIS2_PLACEMENT_3D ( 'NONE', #21, #270, #184 ) ;
#40 = LINE ( 'NONE', #265, #65 ) ;
#41 = PLANE ( 'NONE',  #23 ) ;
#42 = DIRECTION ( 'NONE',  ( 1.000000000000000000, 0.000000000000000000, 1.465672779255765600E-16 ) ) ;
#43 = EDGE_CURVE ( 'NONE', #3, #202, #10, .T. ) ;
#44 = CARTESIAN_POINT ( 'NONE',  ( 0.000000000000000000, 3.500000000000000000, 0.000000000000000000 ) ) ;
#45 = CARTESIAN_POINT ( 'NONE',  ( 0.000000000000000000, -3.499999999999998224, 15.25000000000000000 ) ) ;
#46 = ORIENTED_EDGE ( 'NONE', *, *, #115, .T. ) ;
#47 = PLANE ( 'NONE',  #239 ) ;
#48 = EDGE_LOOP ( 'NONE', ( #302, #158, #236, #300 ) ) ;
#49 = CIRCLE ( 'NONE', #90, 15.25000000000000000 ) ;
#50 = CARTESIAN_POINT ( 'NONE',  ( -11.83568051838732060, 3.500000000000000000, -20.50000000000002132 ) ) ;
#51 = ORIENTED_EDGE ( 'NONE', *, *, #198, .F. ) ;
#52 = DIRECTION ( 'NONE',  ( 0.000000000000000000, 1.000000000000000000, -0.000000000000000000 ) ) ;
#53 = VERTEX_POINT ( 'NONE', #57 ) ;
#54 = ORIENTED_EDGE ( 'NONE', *, *, #62, .T. ) ;
#55 = EDGE_CURVE ( 'NONE', #306, #3, #35, .T. ) ;
#56 = ORIENTED_EDGE ( 'NONE', *, *, #11, .T. ) ;
#57 = CARTESIAN_POINT ( 'NONE',  ( 23.67136103677464831, 3.500000000000000000, -6.748279287735689359E-15 ) ) ;
#58 = FACE_OUTER_BOUND ( 'NONE', #30, .T. ) ;
#59 = AXIS2_PLACEMENT_3D ( 'NONE', #134, #106, #242 ) ;
#60 = ORIENTED_EDGE ( 'NONE', *, *, #55, .T. ) ;
#61 = DIRECTION ( 'NONE',  ( 0.8660254037844390407, -0.000000000000000000, 0.4999999999999993894 ) ) ;
#62 = EDGE_CURVE ( 'NONE', #303, #129, #107, .T. ) ;
#63 = PLANE ( 'NONE',  #267 ) ;
#64 = FILL_AREA_STYLE ('',( #292 ) ) ;
#65 = VECTOR ( 'NONE', #42, 1000.000000000000000 ) ;
#66 = DIRECTION ( 'NONE',  ( 1.465672779255765600E-16, 0.000000000000000000, -1.000000000000000000 ) ) ;
#67 = PLANE ( 'NONE',  #113 ) ;
#68 = CARTESIAN_POINT ( 'NONE',  ( -11.83568051838732060, 3.500000000000000000, -20.50000000000002132 ) ) ;
#69 = ORIENTED_EDGE ( 'NONE', *, *, #218, .T. ) ;
#70 = MECHANICAL_DESIGN_GEOMETRIC_PRESENTATION_REPRESENTATION (  '', ( #29 ), #322 ) ;
#71 = DIRECTION ( 'NONE',  ( -0.4999999999999993894, 0.000000000000000000, 0.8660254037844389297 ) ) ;
#72 = EDGE_LOOP ( 'NONE', ( #278, #51, #137, #163 ) ) ;
#73 =( NAMED_UNIT ( * ) PLANE_ANGLE_UNIT ( ) SI_UNIT ( $, .RADIAN. ) );
#74 = VERTEX_POINT ( 'NONE', #287 ) ;
#75 = DIRECTION ( 'NONE',  ( -0.000000000000000000, 1.000000000000000000, -0.000000000000000000 ) ) ;
#76 = EDGE_LOOP ( 'NONE', ( #131, #252 ) ) ;
#77 = VECTOR ( 'NONE', #327, 1000.000000000000000 ) ;
#78 = FACE_BOUND ( 'NONE', #28, .T. ) ;
#79 = ORIENTED_EDGE ( 'NONE', *, *, #136, .F. ) ;
#80 = ADVANCED_FACE ( 'NONE', ( #219, #58 ), #260, .T. ) ;
#81 = ORIENTED_EDGE ( 'NONE', *, *, #310, .T. ) ;
#82 = ADVANCED_FACE ( 'NONE', ( #264 ), #67, .F. ) ;
#83 = CARTESIAN_POINT ( 'NONE',  ( 0.000000000000000000, 0.000000000000000000, 0.000000000000000000 ) ) ;
#84 = PLANE ( 'NONE',  #210 ) ;
#85 = VECTOR ( 'NONE', #13, 1000.000000000000000 ) ;
#86 = ORIENTED_EDGE ( 'NONE', *, *, #62, .F. ) ;
#87 = EDGE_CURVE ( 'NONE', #285, #74, #40, .T. ) ;
#88 = CARTESIAN_POINT ( 'NONE',  ( 11.83568051838732060, -3.500000000000000000, 20.50000000000001066 ) ) ;
#89 = LINE ( 'NONE', #164, #153 ) ;
#90 = AXIS2_PLACEMENT_3D ( 'NONE', #245, #36, #138 ) ;
#91 = FACE_OUTER_BOUND ( 'NONE', #276, .T. ) ;
#92 = DIRECTION ( 'NONE',  ( -0.000000000000000000, -1.000000000000000000, -0.000000000000000000 ) ) ;
#93 = CARTESIAN_POINT ( 'NONE',  ( -11.83568051838732060, 3.500000000000000000, -20.50000000000002132 ) ) ;
#94 = PRESENTATION_STYLE_ASSIGNMENT (( #321 ) ) ;
#95 = VECTOR ( 'NONE', #27, 1000.000000000000114 ) ;
#96 = CARTESIAN_POINT ( 'NONE',  ( 11.83568051838730462, 3.500000000000000000, -20.50000000000002487 ) ) ;
#97 = DIRECTION ( 'NONE',  ( 0.000000000000000000, 0.000000000000000000, 1.000000000000000000 ) ) ;
#98 = ORIENTED_EDGE ( 'NONE', *, *, #165, .T. ) ;
#99 =( GEOMETRIC_REPRESENTATION_CONTEXT ( 3 ) GLOBAL_UNCERTAINTY_ASSIGNED_CONTEXT ( ( #319 ) ) GLOBAL_UNIT_ASSIGNED_CONTEXT ( ( #203, #104, #286 ) ) REPRESENTATION_CONTEXT ( 'NONE', 'WORKASPACE' ) );
#100 = DIRECTION ( 'NONE',  ( 0.000000000000000000, 0.000000000000000000, 1.000000000000000000 ) ) ;
#101 = PRODUCT_DEFINITION_SHAPE ( 'NONE', 'NONE',  #125 ) ;
#102 = CARTESIAN_POINT ( 'NONE',  ( 11.83568051838730462, 3.500000000000000000, -20.50000000000002487 ) ) ;
#103 = ORIENTED_EDGE ( 'NONE', *, *, #120, .T. ) ;
#104 =( NAMED_UNIT ( * ) PLANE_ANGLE_UNIT ( ) SI_UNIT ( $, .RADIAN. ) );
#105 = CARTESIAN_POINT ( 'NONE',  ( 0.000000000000000000, 3.500000000000000000, 0.000000000000000000 ) ) ;
#106 = DIRECTION ( 'NONE',  ( -0.8660254037844388186, 0.000000000000000000, -0.4999999999999996114 ) ) ;
#107 = LINE ( 'NONE', #312, #195 ) ;
#108 = EDGE_CURVE ( 'NONE', #129, #32, #323, .T. ) ;
#109 = PRESENTATION_LAYER_ASSIGNMENT (  '', '', ( #29 ) ) ;
#110 = ORIENTED_EDGE ( 'NONE', *, *, #169, .T. ) ;
#111 = VERTEX_POINT ( 'NONE', #16 ) ;
#112 = LINE ( 'NONE', #96, #311 ) ;
#113 = AXIS2_PLACEMENT_3D ( 'NONE', #117, #66, #226 ) ;
#114 = DIRECTION ( 'NONE',  ( 0.5000000000000001110, 0.000000000000000000, 0.8660254037844385966 ) ) ;
#115 = EDGE_CURVE ( 'NONE', #111, #256, #112, .T. ) ;
#116 = APPLICATION_CONTEXT ( 'automotive_design' ) ;
#117 = CARTESIAN_POINT ( 'NONE',  ( -11.83568051838733126, 3.500000000000000000, 20.50000000000000711 ) ) ;
#118 = CARTESIAN_POINT ( 'NONE',  ( 0.000000000000000000, 3.500000000000000000, 0.000000000000000000 ) ) ;
#119 = CARTESIAN_POINT ( 'NONE',  ( 23.67136103677464831, 3.500000000000000000, -6.748279287735689359E-15 ) ) ;
#120 = EDGE_CURVE ( 'NONE', #25, #288, #49, .T. ) ;
#121 = ORIENTED_EDGE ( 'NONE', *, *, #11, .F. ) ;
#122 = LINE ( 'NONE', #206, #14 ) ;
#123 = CIRCLE ( 'NONE', #304, 15.25000000000000000 ) ;
#124 = ORIENTED_EDGE ( 'NONE', *, *, #218, .F. ) ;
#125 = PRODUCT_DEFINITION ( 'UNKNOWN', '', #200, #294 ) ;
#126 = LINE ( 'NONE', #119, #77 ) ;
#127 = PLANE ( 'NONE',  #39 ) ;
#128 = EDGE_CURVE ( 'NONE', #53, #111, #170, .T. ) ;
#129 = VERTEX_POINT ( 'NONE', #220 ) ;
#130 = VECTOR ( 'NONE', #114, 1000.000000000000114 ) ;
#131 = ORIENTED_EDGE ( 'NONE', *, *, #194, .F. ) ;
#132 = DIRECTION ( 'NONE',  ( 1.000000000000000000, 0.000000000000000000, 1.465672779255765600E-16 ) ) ;
#133 = ADVANCED_FACE ( 'NONE', ( #290 ), #41, .F. ) ;
#134 = CARTESIAN_POINT ( 'NONE',  ( 11.83568051838732060, 3.500000000000000000, 20.50000000000001066 ) ) ;
#135 = DIRECTION ( 'NONE',  ( 0.000000000000000000, 0.000000000000000000, 1.000000000000000000 ) ) ;
#136 = EDGE_CURVE ( 'NONE', #74, #3, #315, .T. ) ;
#137 = ORIENTED_EDGE ( 'NONE', *, *, #128, .F. ) ;
#138 = DIRECTION ( 'NONE',  ( 0.000000000000000000, 0.000000000000000000, 1.000000000000000000 ) ) ;
#139 = AXIS2_PLACEMENT_3D ( 'NONE', #105, #308, #187 ) ;
#140 = FACE_OUTER_BOUND ( 'NONE', #48, .T. ) ;
#141 = DIRECTION ( 'NONE',  ( -0.4999999999999993894, 0.000000000000000000, 0.8660254037844389297 ) ) ;
#142 = APPLICATION_CONTEXT ( 'automotive_design' ) ;
#143 = ADVANCED_FACE ( 'NONE', ( #140 ), #63, .F. ) ;
#144 = DIRECTION ( 'NONE',  ( -0.000000000000000000, 1.000000000000000000, -0.000000000000000000 ) ) ;
#145 = CARTESIAN_POINT ( 'NONE',  ( -23.67136103677465542, 3.500000000000000000, 2.066171485027314718E-14 ) ) ;
#146 = PRODUCT ( '2049104', '2049104', '', ( #284 ) ) ;
#147 = DIRECTION ( 'NONE',  ( -0.000000000000000000, 1.000000000000000000, -0.000000000000000000 ) ) ;
#148 = EDGE_LOOP ( 'NONE', ( #60, #79, #230, #69 ) ) ;
#149 =( NAMED_UNIT ( * ) SI_UNIT ( $, .STERADIAN. ) SOLID_ANGLE_UNIT ( ) );
#150 = ORIENTED_EDGE ( 'NONE', *, *, #176, .F. ) ;
#151 = ADVANCED_BREP_SHAPE_REPRESENTATION ( '2049104', ( #186, #4 ), #99 ) ;
#152 = CARTESIAN_POINT ( 'NONE',  ( -11.83568051838733126, -3.500000000000000000, 20.50000000000000711 ) ) ;
#153 = VECTOR ( 'NONE', #217, 1000.000000000000000 ) ;
#154 = ORIENTED_EDGE ( 'NONE', *, *, #293, .F. ) ;
#155 = FACE_OUTER_BOUND ( 'NONE', #238, .T. ) ;
#156 = ORIENTED_EDGE ( 'NONE', *, *, #293, .T. ) ;
#157 = ADVANCED_FACE ( 'NONE', ( #91 ), #196, .F. ) ;
#158 = ORIENTED_EDGE ( 'NONE', *, *, #165, .F. ) ;
#159 = VECTOR ( 'NONE', #324, 1000.000000000000114 ) ;
#160 = ORIENTED_EDGE ( 'NONE', *, *, #115, .F. ) ;
#161 = PRODUCT_RELATED_PRODUCT_CATEGORY ( 'part', '', ( #146 ) ) ;
#162 = CARTESIAN_POINT ( 'NONE',  ( -11.83568051838733126, -3.500000000000000000, 20.50000000000000711 ) ) ;
#163 = ORIENTED_EDGE ( 'NONE', *, *, #320, .T. ) ;
#164 = CARTESIAN_POINT ( 'NONE',  ( 0.000000000000000000, 3.500000000000000000, 15.24999999999999289 ) ) ;
#165 = EDGE_CURVE ( 'NONE', #232, #32, #166, .T. ) ;
#166 = LINE ( 'NONE', #199, #85 ) ;
#167 = DIRECTION ( 'NONE',  ( 0.4999999999999993339, 0.000000000000000000, -0.8660254037844389297 ) ) ;
#168 = VECTOR ( 'NONE', #132, 1000.000000000000000 ) ;
#169 = EDGE_CURVE ( 'NONE', #32, #306, #262, .T. ) ;
#170 = LINE ( 'NONE', #171, #234 ) ;
#171 = CARTESIAN_POINT ( 'NONE',  ( 23.67136103677464831, 3.500000000000000000, -6.748279287735689359E-15 ) ) ;
#172 = CARTESIAN_POINT ( 'NONE',  ( -11.83568051838732060, -3.500000000000000000, -20.50000000000002132 ) ) ;
#173 = EDGE_CURVE ( 'NONE', #256, #129, #222, .T. ) ;
#174 = CARTESIAN_POINT ( 'NONE',  ( -23.67136103677465542, 3.500000000000000000, 2.066171485027314718E-14 ) ) ;
#175 = VECTOR ( 'NONE', #263, 1000.000000000000000 ) ;
#176 = EDGE_CURVE ( 'NONE', #74, #53, #197, .T. ) ;
#177 = FACE_OUTER_BOUND ( 'NONE', #72, .T. ) ;
#178 = ORIENTED_EDGE ( 'NONE', *, *, #176, .T. ) ;
#179 = CARTESIAN_POINT ( 'NONE',  ( 23.67136103677464831, -3.500000000000000000, -6.748279287735689359E-15 ) ) ;
#180 = ORIENTED_EDGE ( 'NONE', *, *, #43, .T. ) ;
#181 = LINE ( 'NONE', #102, #182 ) ;
#182 = VECTOR ( 'NONE', #268, 1000.000000000000000 ) ;
#183 = EDGE_LOOP ( 'NONE', ( #180, #271, #150, #249 ) ) ;
#184 = DIRECTION ( 'NONE',  ( 0.5000000000000002220, 0.000000000000000000, 0.8660254037844384856 ) ) ;
#185 = EDGE_LOOP ( 'NONE', ( #110, #124, #273, #98 ) ) ;
#186 = MANIFOLD_SOLID_BREP ( 'M32x1.5 Gewindebohrung1', #221 ) ;
#187 = DIRECTION ( 'NONE',  ( 0.000000000000000000, 0.000000000000000000, 1.000000000000000000 ) ) ;
#188 = DIRECTION ( 'NONE',  ( 1.000000000000000000, 0.000000000000000000, -1.465672779255767326E-16 ) ) ;
#189 = AXIS2_PLACEMENT_3D ( 'NONE', #44, #147, #100 ) ;
#190 = DIRECTION ( 'NONE',  ( 1.000000000000000000, 0.000000000000000000, 0.000000000000000000 ) ) ;
#191 = ORIENTED_EDGE ( 'NONE', *, *, #43, .F. ) ;
#192 = ORIENTED_EDGE ( 'NONE', *, *, #55, .F. ) ;
#193 = ORIENTED_EDGE ( 'NONE', *, *, #37, .T. ) ;
#194 = EDGE_CURVE ( 'NONE', #9, #205, #255, .T. ) ;
#195 = VECTOR ( 'NONE', #34, 1000.000000000000000 ) ;
#196 = CYLINDRICAL_SURFACE ( 'NONE', #282, 15.24999999999999289 ) ;
#197 = LINE ( 'NONE', #295, #175 ) ;
#198 = EDGE_CURVE ( 'NONE', #111, #303, #181, .T. ) ;
#199 = CARTESIAN_POINT ( 'NONE',  ( -23.67136103677465542, 3.500000000000000000, 2.066171485027314718E-14 ) ) ;
#200 = PRODUCT_DEFINITION_FORMATION_WITH_SPECIFIED_SOURCE ( 'ANY', '', #146, .NOT_KNOWN. ) ;
#201 = VECTOR ( 'NONE', #272, 1000.000000000000000 ) ;
#202 = VERTEX_POINT ( 'NONE', #179 ) ;
#203 =( LENGTH_UNIT ( ) NAMED_UNIT ( * ) SI_UNIT ( .MILLI., .METRE. ) );
#204 = VECTOR ( 'NONE', #71, 1000.000000000000227 ) ;
#205 = VERTEX_POINT ( 'NONE', #229 ) ;
#206 = CARTESIAN_POINT ( 'NONE',  ( 1.867586368699712587E-15, 3.500000000000000000, -15.24999999999999289 ) ) ;
#207 = EDGE_LOOP ( 'NONE', ( #54, #20, #160, #314 ) ) ;
#208 = CARTESIAN_POINT ( 'NONE',  ( -11.83568051838733126, 3.500000000000000000, 20.50000000000000711 ) ) ;
#209 = ORIENTED_EDGE ( 'NONE', *, *, #37, .F. ) ;
#210 = AXIS2_PLACEMENT_3D ( 'NONE', #31, #313, #188 ) ;
#211 = ORIENTED_EDGE ( 'NONE', *, *, #108, .F. ) ;
#212 = ORIENTED_EDGE ( 'NONE', *, *, #279, .T. ) ;
#213 = CARTESIAN_POINT ( 'NONE',  ( 11.83568051838732060, -3.500000000000000000, 20.50000000000001066 ) ) ;
#214 = FACE_OUTER_BOUND ( 'NONE', #183, .T. ) ;
#215 = VECTOR ( 'NONE', #291, 1000.000000000000000 ) ;
#216 = APPLICATION_PROTOCOL_DEFINITION ( 'draft international standard', 'automotive_design', 1998, #116 ) ;
#217 = DIRECTION ( 'NONE',  ( -0.000000000000000000, 1.000000000000000000, -0.000000000000000000 ) ) ;
#218 = EDGE_CURVE ( 'NONE', #285, #306, #277, .T. ) ;
#219 = FACE_BOUND ( 'NONE', #76, .T. ) ;
#220 = CARTESIAN_POINT ( 'NONE',  ( -11.83568051838732060, -3.500000000000000000, -20.50000000000002132 ) ) ;
#221 = CLOSED_SHELL ( 'NONE', ( #157, #143, #133, #82, #1, #259, #26, #80, #240, #233 ) ) ;
#222 = LINE ( 'NONE', #317, #316 ) ;
#223 = DIRECTION ( 'NONE',  ( -1.000000000000000000, 0.000000000000000000, 1.465672779255767079E-16 ) ) ;
#224 = DIRECTION ( 'NONE',  ( 0.000000000000000000, 0.000000000000000000, 1.000000000000000000 ) ) ;
#225 = AXIS2_PLACEMENT_3D ( 'NONE', #251, #19, #24 ) ;
#226 = DIRECTION ( 'NONE',  ( -1.000000000000000000, 0.000000000000000000, -1.465672779255765600E-16 ) ) ;
#227 = EDGE_CURVE ( 'NONE', #256, #232, #305, .T. ) ;
#228 = DIRECTION ( 'NONE',  ( 0.000000000000000000, 0.000000000000000000, 1.000000000000000000 ) ) ;
#229 = CARTESIAN_POINT ( 'NONE',  ( 1.867586368699712193E-15, 3.499999999999999556, -15.24999999999998757 ) ) ;
#230 = ORIENTED_EDGE ( 'NONE', *, *, #87, .F. ) ;
#231 = LINE ( 'NONE', #174, #159 ) ;
#232 = VERTEX_POINT ( 'NONE', #296 ) ;
#233 = ADVANCED_FACE ( 'NONE', ( #299 ), #275, .F. ) ;
#234 = VECTOR ( 'NONE', #266, 1000.000000000000114 ) ;
#235 = ORIENTED_EDGE ( 'NONE', *, *, #194, .T. ) ;
#236 = ORIENTED_EDGE ( 'NONE', *, *, #227, .F. ) ;
#237 = CARTESIAN_POINT ( 'NONE',  ( -23.67136103677465542, -3.500000000000000000, 2.066171485027314718E-14 ) ) ;
#238 = EDGE_LOOP ( 'NONE', ( #211, #86, #5, #191, #192, #269 ) ) ;
#239 = AXIS2_PLACEMENT_3D ( 'NONE', #248, #52, #228 ) ;
#240 = ADVANCED_FACE ( 'NONE', ( #78, #155 ), #47, .F. ) ;
#241 = DIRECTION ( 'NONE',  ( 0.4999999999999996114, 0.000000000000000000, -0.8660254037844388186 ) ) ;
#242 = DIRECTION ( 'NONE',  ( -0.4999999999999996114, 0.000000000000000000, 0.8660254037844388186 ) ) ;
#243 = CARTESIAN_POINT ( 'NONE',  ( -23.67136103677465542, -3.500000000000000000, 2.066171485027314718E-14 ) ) ;
#244 = SURFACE_STYLE_FILL_AREA ( #64 ) ;
#245 = CARTESIAN_POINT ( 'NONE',  ( 0.000000000000000000, -3.499999999999998224, 0.000000000000000000 ) ) ;
#246 =( LENGTH_UNIT ( ) NAMED_UNIT ( * ) SI_UNIT ( .MILLI., .METRE. ) );
#247 = DIRECTION ( 'NONE',  ( -0.000000000000000000, 1.000000000000000000, -0.000000000000000000 ) ) ;
#248 = CARTESIAN_POINT ( 'NONE',  ( 0.000000000000000000, -3.500000000000000000, 0.000000000000000000 ) ) ;
#249 = ORIENTED_EDGE ( 'NONE', *, *, #136, .T. ) ;
#250 = EDGE_CURVE ( 'NONE', #202, #303, #325, .T. ) ;
#251 = CARTESIAN_POINT ( 'NONE',  ( 0.000000000000000000, 3.499999999999999556, 0.000000000000000000 ) ) ;
#252 = ORIENTED_EDGE ( 'NONE', *, *, #310, .F. ) ;
#253 = CARTESIAN_POINT ( 'NONE',  ( 23.67136103677464831, -3.500000000000000000, -6.748279287735689359E-15 ) ) ;
#254 = ORIENTED_EDGE ( 'NONE', *, *, #227, .T. ) ;
#255 = CIRCLE ( 'NONE', #298, 15.24999999999998757 ) ;
#256 = VERTEX_POINT ( 'NONE', #68 ) ;
#257 = DIRECTION ( 'NONE',  ( 0.000000000000000000, 0.000000000000000000, 1.000000000000000000 ) ) ;
#258 = FACE_OUTER_BOUND ( 'NONE', #207, .T. ) ;
#259 = ADVANCED_FACE ( 'NONE', ( #177 ), #127, .F. ) ;
#260 = PLANE ( 'NONE',  #139 ) ;
#261 = CARTESIAN_POINT ( 'NONE',  ( 0.000000000000000000, -3.499999999999998224, 0.000000000000000000 ) ) ;
#262 = LINE ( 'NONE', #243, #130 ) ;
#263 = DIRECTION ( 'NONE',  ( 0.4999999999999996114, 0.000000000000000000, -0.8660254037844388186 ) ) ;
#264 = FACE_OUTER_BOUND ( 'NONE', #148, .T. ) ;
#265 = CARTESIAN_POINT ( 'NONE',  ( -11.83568051838733126, 3.500000000000000000, 20.50000000000000711 ) ) ;
#266 = DIRECTION ( 'NONE',  ( -0.5000000000000002220, 0.000000000000000000, -0.8660254037844384856 ) ) ;
#267 = AXIS2_PLACEMENT_3D ( 'NONE', #93, #61, #167 ) ;
#268 = DIRECTION ( 'NONE',  ( -0.000000000000000000, -1.000000000000000000, -0.000000000000000000 ) ) ;
#269 = ORIENTED_EDGE ( 'NONE', *, *, #169, .F. ) ;
#270 = DIRECTION ( 'NONE',  ( -0.8660254037844385966, 0.000000000000000000, 0.5000000000000003331 ) ) ;
#271 = ORIENTED_EDGE ( 'NONE', *, *, #320, .F. ) ;
#272 = DIRECTION ( 'NONE',  ( -0.000000000000000000, -1.000000000000000000, -0.000000000000000000 ) ) ;
#273 = ORIENTED_EDGE ( 'NONE', *, *, #279, .F. ) ;
#274 = COLOUR_RGB ( '',0.7921568627450980005, 0.8196078431372548767, 0.9333333333333333481 ) ;
#275 = CYLINDRICAL_SURFACE ( 'NONE', #189, 15.24999999999999289 ) ;
#276 = EDGE_LOOP ( 'NONE', ( #326, #156, #81, #121 ) ) ;
#277 = LINE ( 'NONE', #2, #201 ) ;
#278 = ORIENTED_EDGE ( 'NONE', *, *, #250, .T. ) ;
#279 = EDGE_CURVE ( 'NONE', #232, #285, #231, .T. ) ;
#280 = SHAPE_DEFINITION_REPRESENTATION ( #101, #151 ) ;
#281 = CARTESIAN_POINT ( 'NONE',  ( 0.000000000000000000, 3.499999999999999556, 15.24999999999998757 ) ) ;
#282 = AXIS2_PLACEMENT_3D ( 'NONE', #118, #144, #224 ) ;
#283 = ORIENTED_EDGE ( 'NONE', *, *, #128, .T. ) ;
#284 = PRODUCT_CONTEXT ( 'NONE', #142, 'mechanical' ) ;
#285 = VERTEX_POINT ( 'NONE', #208 ) ;
#286 =( NAMED_UNIT ( * ) SI_UNIT ( $, .STERADIAN. ) SOLID_ANGLE_UNIT ( ) );
#287 = CARTESIAN_POINT ( 'NONE',  ( 11.83568051838732060, 3.500000000000000000, 20.50000000000001066 ) ) ;
#288 = VERTEX_POINT ( 'NONE', #45 ) ;
#289 = VECTOR ( 'NONE', #241, 1000.000000000000000 ) ;
#290 = FACE_OUTER_BOUND ( 'NONE', #185, .T. ) ;
#291 = DIRECTION ( 'NONE',  ( -0.000000000000000000, -1.000000000000000000, -0.000000000000000000 ) ) ;
#292 = FILL_AREA_STYLE_COLOUR ( '', #274 ) ;
#293 = EDGE_CURVE ( 'NONE', #25, #205, #122, .T. ) ;
#294 = PRODUCT_DEFINITION_CONTEXT ( 'detailed design', #116, 'design' ) ;
#295 = CARTESIAN_POINT ( 'NONE',  ( 11.83568051838732060, 3.500000000000000000, 20.50000000000001066 ) ) ;
#296 = CARTESIAN_POINT ( 'NONE',  ( -23.67136103677465542, 3.500000000000000000, 2.066171485027314718E-14 ) ) ;
#297 = EDGE_LOOP ( 'NONE', ( #154, #209, #56, #235 ) ) ;
#298 = AXIS2_PLACEMENT_3D ( 'NONE', #38, #75, #97 ) ;
#299 = FACE_OUTER_BOUND ( 'NONE', #297, .T. ) ;
#300 = ORIENTED_EDGE ( 'NONE', *, *, #173, .T. ) ;
#301 = CARTESIAN_POINT ( 'NONE',  ( 11.83568051838730462, -3.500000000000000000, -20.50000000000002487 ) ) ;
#302 = ORIENTED_EDGE ( 'NONE', *, *, #108, .T. ) ;
#303 = VERTEX_POINT ( 'NONE', #301 ) ;
#304 = AXIS2_PLACEMENT_3D ( 'NONE', #261, #7, #135 ) ;
#305 = LINE ( 'NONE', #50, #204 ) ;
#306 = VERTEX_POINT ( 'NONE', #152 ) ;
#307 = APPLICATION_PROTOCOL_DEFINITION ( 'draft international standard', 'automotive_design', 1998, #142 ) ;
#308 = DIRECTION ( 'NONE',  ( 0.000000000000000000, 1.000000000000000000, -0.000000000000000000 ) ) ;
#309 = CARTESIAN_POINT ( 'NONE',  ( 1.867586368699713376E-15, -3.499999999999998224, -15.25000000000000000 ) ) ;
#310 = EDGE_CURVE ( 'NONE', #205, #9, #33, .T. ) ;
#311 = VECTOR ( 'NONE', #223, 1000.000000000000000 ) ;
#312 = CARTESIAN_POINT ( 'NONE',  ( 11.83568051838730462, -3.500000000000000000, -20.50000000000002487 ) ) ;
#313 = DIRECTION ( 'NONE',  ( 1.465672779255767326E-16, -0.000000000000000000, 1.000000000000000000 ) ) ;
#314 = ORIENTED_EDGE ( 'NONE', *, *, #198, .T. ) ;
#315 = LINE ( 'NONE', #18, #215 ) ;
#316 = VECTOR ( 'NONE', #92, 1000.000000000000000 ) ;
#317 = CARTESIAN_POINT ( 'NONE',  ( -11.83568051838732060, 3.500000000000000000, -20.50000000000002132 ) ) ;
#318 = DIRECTION ( 'NONE',  ( 0.8660254037844385966, 0.000000000000000000, -0.5000000000000001110 ) ) ;
#319 = UNCERTAINTY_MEASURE_WITH_UNIT (LENGTH_MEASURE( 1.000000000000000082E-05 ), #203, 'distance_accuracy_value', 'NONE');
#320 = EDGE_CURVE ( 'NONE', #53, #202, #126, .T. ) ;
#321 = SURFACE_STYLE_USAGE ( .BOTH. , #15 ) ;
#322 =( GEOMETRIC_REPRESENTATION_CONTEXT ( 3 ) GLOBAL_UNCERTAINTY_ASSIGNED_CONTEXT ( ( #17 ) ) GLOBAL_UNIT_ASSIGNED_CONTEXT ( ( #246, #73, #149 ) ) REPRESENTATION_CONTEXT ( 'NONE', 'WORKASPACE' ) );
#323 = LINE ( 'NONE', #172, #8 ) ;
#324 = DIRECTION ( 'NONE',  ( 0.5000000000000001110, 0.000000000000000000, 0.8660254037844385966 ) ) ;
#325 = LINE ( 'NONE', #253, #95 ) ;
#326 = ORIENTED_EDGE ( 'NONE', *, *, #120, .F. ) ;
#327 = DIRECTION ( 'NONE',  ( -0.000000000000000000, -1.000000000000000000, -0.000000000000000000 ) ) ;
ENDSEC;
END-ISO-10303-21;
