ISO-10303-21;
HEADER;
FILE_DESCRIPTION (( 'STEP AP214' ),
    '1' );
FILE_NAME ('3402345.stp',
    '2024-05-02T15:20:35',
    ( '' ),
    ( '' ),
    'SwSTEP 2.0',
    'SolidWorks 2022',
    '' );
FILE_SCHEMA (( 'AUTOMOTIVE_DESIGN' ));
ENDSEC;

DATA;
#1 = AXIS2_PLACEMENT_3D ( 'NONE', #97, #55, #21 ) ;
#2 = DIRECTION ( 'NONE',  ( -1.000000000000000000, -0.000000000000000000, -0.000000000000000000 ) ) ;
#3 = EDGE_CURVE ( 'NONE', #118, #118, #101, .T. ) ;
#4 = PRESENTATION_LAYER_ASSIGNMENT (  '', '', ( #20 ) ) ;
#5 = ORIENTED_EDGE ( 'NONE', *, *, #126, .T. ) ;
#6 = ORIENTED_EDGE ( 'NONE', *, *, #89, .T. ) ;
#7 = CARTESIAN_POINT ( 'NONE',  ( 0.000000000000000000, 0.000000000000000000, 0.000000000000000000 ) ) ;
#8 = CARTESIAN_POINT ( 'NONE',  ( 0.000000000000000000, 6.500000000000000000, 0.000000000000000000 ) ) ;
#9 = DIRECTION ( 'NONE',  ( 0.000000000000000000, 0.000000000000000000, -1.000000000000000000 ) ) ;
#10 = DIRECTION ( 'NONE',  ( 0.000000000000000000, 0.000000000000000000, 1.000000000000000000 ) ) ;
#11 = SURFACE_STYLE_FILL_AREA ( #41 ) ;
#12 =( NAMED_UNIT ( * ) SI_UNIT ( $, .STERADIAN. ) SOLID_ANGLE_UNIT ( ) );
#13 = ADVANCED_FACE ( 'NONE', ( #90, #40 ), #39, .F. ) ;
#14 = CARTESIAN_POINT ( 'NONE',  ( 0.000000000000000000, 0.000000000000000000, 0.000000000000000000 ) ) ;
#15 = APPLICATION_CONTEXT ( 'automotive_design' ) ;
#16 = FACE_OUTER_BOUND ( 'NONE', #59, .T. ) ;
#17 = PRESENTATION_LAYER_ASSIGNMENT (  '', '', ( #54 ) ) ;
#18 = EDGE_LOOP ( 'NONE', ( #123 ) ) ;
#19 = DIRECTION ( 'NONE',  ( -0.000000000000000000, 0.000000000000000000, 1.000000000000000000 ) ) ;
#20 = STYLED_ITEM ( 'NONE', ( #57 ), #122 ) ;
#21 = DIRECTION ( 'NONE',  ( 0.000000000000000000, 0.000000000000000000, 1.000000000000000000 ) ) ;
#22 = PRODUCT_RELATED_PRODUCT_CATEGORY ( 'part', '', ( #87 ) ) ;
#23 =( NAMED_UNIT ( * ) PLANE_ANGLE_UNIT ( ) SI_UNIT ( $, .RADIAN. ) );
#24 = PRESENTATION_STYLE_ASSIGNMENT (( #47 ) ) ;
#25 = APPLICATION_CONTEXT ( 'automotive_design' ) ;
#26 = CARTESIAN_POINT ( 'NONE',  ( -34.92499999999994742, 0.000000000000000000, 0.000000000000000000 ) ) ;
#27 = PRODUCT_DEFINITION_FORMATION_WITH_SPECIFIED_SOURCE ( 'ANY', '', #87, .NOT_KNOWN. ) ;
#28 = CYLINDRICAL_SURFACE ( 'NONE', #131, 12.00000000000000000 ) ;
#29 = PRODUCT_DEFINITION_CONTEXT ( 'detailed design', #25, 'design' ) ;
#30 = ORIENTED_EDGE ( 'NONE', *, *, #89, .F. ) ;
#31 = ORIENTED_EDGE ( 'NONE', *, *, #3, .F. ) ;
#32 = DIRECTION ( 'NONE',  ( -1.000000000000000000, -0.000000000000000000, -0.000000000000000000 ) ) ;
#33 = CARTESIAN_POINT ( 'NONE',  ( 0.000000000000000000, 0.000000000000000000, 12.00000000000000000 ) ) ;
#34 = AXIS2_PLACEMENT_3D ( 'NONE', #7, #62, #10 ) ;
#35 =( NAMED_UNIT ( * ) PLANE_ANGLE_UNIT ( ) SI_UNIT ( $, .RADIAN. ) );
#36 = DIRECTION ( 'NONE',  ( 0.000000000000000000, 0.000000000000000000, 1.000000000000000000 ) ) ;
#37 = CIRCLE ( 'NONE', #52, 6.500000000000000000 ) ;
#38 =( NAMED_UNIT ( * ) PLANE_ANGLE_UNIT ( ) SI_UNIT ( $, .RADIAN. ) );
#39 = CYLINDRICAL_SURFACE ( 'NONE', #46, 6.500000000000000000 ) ;
#40 = FACE_OUTER_BOUND ( 'NONE', #51, .T. ) ;
#41 = FILL_AREA_STYLE ('',( #68 ) ) ;
#42 =( LENGTH_UNIT ( ) NAMED_UNIT ( * ) SI_UNIT ( .MILLI., .METRE. ) );
#43 = COLOUR_RGB ( '',0.7764705882352941346, 0.7568627450980391913, 0.7372549019607843590 ) ;
#44 = CARTESIAN_POINT ( 'NONE',  ( 0.000000000000000000, 0.000000000000000000, 0.000000000000000000 ) ) ;
#45 = VERTEX_POINT ( 'NONE', #80 ) ;
#46 = AXIS2_PLACEMENT_3D ( 'NONE', #50, #2, #83 ) ;
#47 = SURFACE_STYLE_USAGE ( .BOTH. , #58 ) ;
#48 = AXIS2_PLACEMENT_3D ( 'NONE', #14, #36, #82 ) ;
#49 = ADVANCED_BREP_SHAPE_REPRESENTATION ( '3402345', ( #122, #48 ), #56 ) ;
#50 = CARTESIAN_POINT ( 'NONE',  ( -34.92499999999994742, 0.000000000000000000, 0.000000000000000000 ) ) ;
#51 = EDGE_LOOP ( 'NONE', ( #91 ) ) ;
#52 = AXIS2_PLACEMENT_3D ( 'NONE', #44, #86, #78 ) ;
#53 = EDGE_LOOP ( 'NONE', ( #92 ) ) ;
#54 = STYLED_ITEM ( 'NONE', ( #24 ), #49 ) ;
#55 = DIRECTION ( 'NONE',  ( -1.000000000000000000, -0.000000000000000000, -0.000000000000000000 ) ) ;
#56 =( GEOMETRIC_REPRESENTATION_CONTEXT ( 3 ) GLOBAL_UNCERTAINTY_ASSIGNED_CONTEXT ( ( #75 ) ) GLOBAL_UNIT_ASSIGNED_CONTEXT ( ( #42, #35, #98 ) ) REPRESENTATION_CONTEXT ( 'NONE', 'WORKASPACE' ) );
#57 = PRESENTATION_STYLE_ASSIGNMENT (( #107 ) ) ;
#58 = SURFACE_SIDE_STYLE ('',( #11 ) ) ;
#59 = EDGE_LOOP ( 'NONE', ( #104 ) ) ;
#60 = PRODUCT_DEFINITION_SHAPE ( 'NONE', 'NONE',  #84 ) ;
#61 = CIRCLE ( 'NONE', #1, 12.00000000000000000 ) ;
#62 = DIRECTION ( 'NONE',  ( -1.000000000000000000, -0.000000000000000000, -0.000000000000000000 ) ) ;
#63 = ADVANCED_FACE ( 'NONE', ( #121, #74 ), #28, .T. ) ;
#64 = DIRECTION ( 'NONE',  ( 0.000000000000000000, 0.000000000000000000, 1.000000000000000000 ) ) ;
#65 = FACE_BOUND ( 'NONE', #53, .T. ) ;
#66 = ADVANCED_FACE ( 'NONE', ( #16, #65 ), #106, .F. ) ;
#67 = FILL_AREA_STYLE ('',( #132 ) ) ;
#68 = FILL_AREA_STYLE_COLOUR ( '', #43 ) ;
#69 = AXIS2_PLACEMENT_3D ( 'NONE', #130, #76, #9 ) ;
#70 = SURFACE_STYLE_FILL_AREA ( #67 ) ;
#71 =( NAMED_UNIT ( * ) SI_UNIT ( $, .STERADIAN. ) SOLID_ANGLE_UNIT ( ) );
#72 = MECHANICAL_DESIGN_GEOMETRIC_PRESENTATION_REPRESENTATION (  '', ( #54 ), #99 ) ;
#73 = AXIS2_PLACEMENT_3D ( 'NONE', #128, #32, #129 ) ;
#74 = FACE_OUTER_BOUND ( 'NONE', #102, .T. ) ;
#75 = UNCERTAINTY_MEASURE_WITH_UNIT (LENGTH_MEASURE( 1.000000000000000082E-05 ), #42, 'distance_accuracy_value', 'NONE');
#76 = DIRECTION ( 'NONE',  ( 1.000000000000000000, 0.000000000000000000, 0.000000000000000000 ) ) ;
#77 = APPLICATION_PROTOCOL_DEFINITION ( 'draft international standard', 'automotive_design', 1998, #15 ) ;
#78 = DIRECTION ( 'NONE',  ( 0.000000000000000000, 0.000000000000000000, 1.000000000000000000 ) ) ;
#79 = FACE_BOUND ( 'NONE', #114, .T. ) ;
#80 = CARTESIAN_POINT ( 'NONE',  ( -2.500000000000002220, 0.000000000000000000, 12.00000000000000000 ) ) ;
#81 =( LENGTH_UNIT ( ) NAMED_UNIT ( * ) SI_UNIT ( .MILLI., .METRE. ) );
#82 = DIRECTION ( 'NONE',  ( 1.000000000000000000, 0.000000000000000000, 0.000000000000000000 ) ) ;
#83 = DIRECTION ( 'NONE',  ( 0.000000000000000000, 0.000000000000000000, 1.000000000000000000 ) ) ;
#84 = PRODUCT_DEFINITION ( 'UNKNOWN', '', #27, #29 ) ;
#85 = EDGE_LOOP ( 'NONE', ( #6 ) ) ;
#86 = DIRECTION ( 'NONE',  ( -1.000000000000000000, -0.000000000000000000, -0.000000000000000000 ) ) ;
#87 = PRODUCT ( '3402345', '3402345', '', ( #100 ) ) ;
#88 = FACE_OUTER_BOUND ( 'NONE', #85, .T. ) ;
#89 = EDGE_CURVE ( 'NONE', #45, #45, #61, .T. ) ;
#90 = FACE_OUTER_BOUND ( 'NONE', #18, .T. ) ;
#91 = ORIENTED_EDGE ( 'NONE', *, *, #3, .T. ) ;
#92 = ORIENTED_EDGE ( 'NONE', *, *, #133, .T. ) ;
#93 = AXIS2_PLACEMENT_3D ( 'NONE', #8, #105, #19 ) ;
#94 =( LENGTH_UNIT ( ) NAMED_UNIT ( * ) SI_UNIT ( .MILLI., .METRE. ) );
#95 = VERTEX_POINT ( 'NONE', #115 ) ;
#96 = ADVANCED_FACE ( 'NONE', ( #79, #88 ), #120, .F. ) ;
#97 = CARTESIAN_POINT ( 'NONE',  ( -2.500000000000002220, 0.000000000000000000, 0.000000000000000000 ) ) ;
#98 =( NAMED_UNIT ( * ) SI_UNIT ( $, .STERADIAN. ) SOLID_ANGLE_UNIT ( ) );
#99 =( GEOMETRIC_REPRESENTATION_CONTEXT ( 3 ) GLOBAL_UNCERTAINTY_ASSIGNED_CONTEXT ( ( #124 ) ) GLOBAL_UNIT_ASSIGNED_CONTEXT ( ( #81, #38, #12 ) ) REPRESENTATION_CONTEXT ( 'NONE', 'WORKASPACE' ) );
#100 = PRODUCT_CONTEXT ( 'NONE', #15, 'mechanical' ) ;
#101 = CIRCLE ( 'NONE', #73, 6.500000000000000000 ) ;
#102 = EDGE_LOOP ( 'NONE', ( #5 ) ) ;
#103 = UNCERTAINTY_MEASURE_WITH_UNIT (LENGTH_MEASURE( 1.000000000000000082E-05 ), #94, 'distance_accuracy_value', 'NONE');
#104 = ORIENTED_EDGE ( 'NONE', *, *, #126, .F. ) ;
#105 = DIRECTION ( 'NONE',  ( -1.000000000000000000, 0.000000000000000000, -0.000000000000000000 ) ) ;
#106 = PLANE ( 'NONE',  #93 ) ;
#107 = SURFACE_STYLE_USAGE ( .BOTH. , #116 ) ;
#108 = VERTEX_POINT ( 'NONE', #33 ) ;
#109 = CIRCLE ( 'NONE', #34, 12.00000000000000000 ) ;
#110 = SHAPE_DEFINITION_REPRESENTATION ( #60, #49 ) ;
#111 = APPLICATION_PROTOCOL_DEFINITION ( 'draft international standard', 'automotive_design', 1998, #25 ) ;
#112 =( GEOMETRIC_REPRESENTATION_CONTEXT ( 3 ) GLOBAL_UNCERTAINTY_ASSIGNED_CONTEXT ( ( #103 ) ) GLOBAL_UNIT_ASSIGNED_CONTEXT ( ( #94, #23, #71 ) ) REPRESENTATION_CONTEXT ( 'NONE', 'WORKASPACE' ) );
#113 = EDGE_LOOP ( 'NONE', ( #30 ) ) ;
#114 = EDGE_LOOP ( 'NONE', ( #31 ) ) ;
#115 = CARTESIAN_POINT ( 'NONE',  ( 0.000000000000000000, 0.000000000000000000, 6.500000000000000000 ) ) ;
#116 = SURFACE_SIDE_STYLE ('',( #70 ) ) ;
#117 = CLOSED_SHELL ( 'NONE', ( #13, #66, #63, #96 ) ) ;
#118 = VERTEX_POINT ( 'NONE', #119 ) ;
#119 = CARTESIAN_POINT ( 'NONE',  ( -2.500000000000002220, 0.000000000000000000, 6.500000000000000000 ) ) ;
#120 = PLANE ( 'NONE',  #69 ) ;
#121 = FACE_OUTER_BOUND ( 'NONE', #113, .T. ) ;
#122 = MANIFOLD_SOLID_BREP ( 'Base-Revolve', #117 ) ;
#123 = ORIENTED_EDGE ( 'NONE', *, *, #133, .F. ) ;
#124 = UNCERTAINTY_MEASURE_WITH_UNIT (LENGTH_MEASURE( 1.000000000000000082E-05 ), #81, 'distance_accuracy_value', 'NONE');
#125 = COLOUR_RGB ( '',0.7764705882352941346, 0.7568627450980391913, 0.7372549019607843590 ) ;
#126 = EDGE_CURVE ( 'NONE', #108, #108, #109, .T. ) ;
#127 = DIRECTION ( 'NONE',  ( -1.000000000000000000, -0.000000000000000000, -0.000000000000000000 ) ) ;
#128 = CARTESIAN_POINT ( 'NONE',  ( -2.500000000000002220, 0.000000000000000000, 0.000000000000000000 ) ) ;
#129 = DIRECTION ( 'NONE',  ( 0.000000000000000000, 0.000000000000000000, 1.000000000000000000 ) ) ;
#130 = CARTESIAN_POINT ( 'NONE',  ( -2.500000000000001332, 12.00000000000000000, 0.000000000000000000 ) ) ;
#131 = AXIS2_PLACEMENT_3D ( 'NONE', #26, #127, #64 ) ;
#132 = FILL_AREA_STYLE_COLOUR ( '', #125 ) ;
#133 = EDGE_CURVE ( 'NONE', #95, #95, #37, .T. ) ;
#134 = MECHANICAL_DESIGN_GEOMETRIC_PRESENTATION_REPRESENTATION (  '', ( #20 ), #112 ) ;
ENDSEC;
END-ISO-10303-21;
